Oops, an error
Loading. Please wait.

Ghost Busters Bass Tab

10,738 views 12 this week
1 commentread comment
1 2 3 4 5
2 more votes to show rating
add to favorites
launch autoscroll
font size
0
reset
guitar tuner
Autoscroll
slow
fast
+/-
esc
set tempo
stop
Help us to improve Ultimate-Guitar.com Take our survey!
×
-------------------------------------------------------------------------------
			     GHOSTBUSTERS – Xentrix – BASS TAB
-------------------------------------------------------------------------------

Tabbed By : AlienMetalhead
e-mail: Alien_general_lee@yahoo.co.uk

Tuning: Standard
Listen to song for the rhythm

G|----------------------------------------------------|
D|----------------------------------------------------|X5
A|--------5------------5-------------5-------------5--|
E|00-55h7--5---00-55h7--5---00-55h7---5---00-55h7---5-|

00:25
G|---------------------------------------------------------------|
D|---------------------------------------------------------------|X2
A|7-7-7-7-7-7-5-5-5-5-5-5-5-5-5-5-4-4-4-4-4-4-0-0-0-0-0-0-0-0-0-0|
E|---------------------------------------------------------------|

00:37
G|----------------------------------------------------|
D|----------------------------------------------------|X3
A|--------5------------5-------------5-------------5--|
E|00-55h7--5---00-55h7--5---00-55h7---5---00-55h7---5-|

00:54
G|---------------------------------------------------------------|
D|---------------------------------------------------------------|X2
A|7-7-7-7-7-7-5-5-5-5-5-5-5-5-5-5-4-4-4-4-4-4-0-0-0-0-0-0-0-0-0-0|
E|---------------------------------------------------------------|

01:06
G|----------------------------------------------------|
D|----------------------------------------------------|X2
A|--------5------------5-------------5-------------5--|
E|00-55h7--5---00-55h7--5---00-55h7---5---00-55h7---5-|

01:19
G|------------------|
D|------------------|X4
A|-7-5------------77|
E|------------------|

01:31
G|----------------------------------------------------|
D|----------------------------------------------------|X2
A|--------5------------5-------------5-------------5--|
E|00-55h7--5---00-55h7--5---00-55h7---5---00-55h7---5-|

01:42
G|---------------------------------------------------------------------------|
D|---------------------------------------------------------------------------|
A|---------------------------------------------------------------------------|
E|-77----------------7----------------------77----------------7--------------|

01:53
G|---------------------------------------------------------------|
D|---------------------------------------------------------------|X2
A|7-7-7-7-7-7-5-5-5-5-5-5-5-5-5-5-4-4-4-4-4-4-0-0-0-0-0-0-0-0-0-0|
E|---------------------------------------------------------------|

02:05
G|----------------------------------------------------|
D|----------------------------------------------------|X2
A|--------5------------5-------------5-------------5--|
E|00-55h7--5---00-55h7--5---00-55h7---5---00-55h7---5-|

Not sure about tabbing the end, just keep playing the main chorus riff faster and faster 
higher each time.


PEACE OUT Y'ALL!!


| /  slide up
| \  slide down
| h  hammer-on
| p  pull-off
| ~  vibrato
| +  harmonic
| x  Mute note
===============================================================================
Suggest correction
Give kudos to tab author, rate the tab!
1 2 3 4 5
comments
print report bad tab
1 comment total.
0 reply
Julien.boyer.Di 10 Oct 26, 2013 06:38 PM

Hi, just a litle correction .
you're playing the chorus on the wrong string .
you have to play it on the E string .7-5-4-0 ( B-A-G#-E )

great job anyway ;)

guest
You may want to rate the tab now too:
select rating
Wanna post a correction for this tab? Suggest correction