Oops, an error
Loading. Please wait.

No Compromise Tab

2,087 views 1 this week
no commentswrite comment
1 2 3 4 5
please rate
add to favorites
launch autoscroll
font size
0
reset
how to read this tab
guitar tuner
Tab Pro tools
  • play this tab
  • loop segment
  • change instrument
  • show fretboard
  • metronome
×
Best way to learn
"No Compromise"
Autoscroll
slow
fast
+/-
esc
set tempo
stop
Contributor
Band:  Xentrix
Album: Shattered Existence
Song:  No Compromise

Late 80's, early 90's UK thrash metal band.

Copyright (c)  (Roadracer) (1989)
Version 1.0 - (18/05/05)



.  - palm mute           /  - slide up to
\  - slide down to       ~  - vibrato
h  - hammer on           b  - Bend
p  - pull off            Suffixes for bend
t  - tap                 f  - full bend    h - half bend
ph - pinched harmonic    q  - quarter bend t - tap bend
*  - see comment         ^  - Hold bend    r release bend
x  - Stuccatto           ~  - vibrato bend
,  - slight palm mute    () - ghost note, sustained note
"  - tremolo note        <> - Trill

Tunning E A D G B E
 

 Intro

  Guitar 1

E[------------------------------------------------------------------|
B[-----------------8------------------------------------------------|
G[-------------------7-6-----7-6------------------------------------|
D[-9\--------------------8-7-----8-9\--------------7--(7)-/10-(10)--|
A[-7\------------------------------7\--------------5--(5)-/8--(8)---|
E[-0-------------------------------0--------------------------------|
 [Guitar 2
 [[------PM-------]       PM      [------PM-------]
E[------------------------------------------------------------------|
B[------------------------------------------------------------------|
G[-----------------9------------------------------------------------|
D[-------------------8-7\5---8-7-5-----------------7--(7)-/10-(10)--|
A[-------------------------7-----------------------5--(5)-/8--(8)---|
E[-000-000-000-000-----------------000-000-000-000------------------|

  Guitar 1

E[------------------------------------------------------------------|
B[-----------------8------------------------------------------------|
G[-------------------7-6-----7-6------------------------------------|
D[-9\--------------------8-7-----8-9\--------------10-(10)\5--(5)---|
A[-7\------------------------------7\--------------8--(8)-\3--(3)---|
E[-0-------------------------------0--------------------------------|
 [Guitar 2
 [[------PM-------]       PM      [------PM-------]
E[------------------------------------------------------------------|
B[------------------------------------------------------------------|
G[-----------------9------------------------------------------------|
D[-------------------8-7\5---8-7-5-----------------10-(10)\5--(5)---|
A[-------------------------7-----------------------8--(8)-\3--(3)---|
E[-000-000-000-000-----------------000-000-000-000------------------|

  Guitar 1

E[------------------------------------------------------------------|
B[-----------------8------------------------------------------------|
G[-------------------7-6-----7-6------------------------------------|
D[-----------------------8-7-----8-----------------7--(7)-/10-(10)--|
A[-------------------------------------------------5--(5)-/8--(8)---|
E[-000-000-000-000-----------------000-000-000-000------------------|
 [Guitar 2
 [[------PM-------]       PM      [------PM-------]
E[------------------------------------------------------------------|
B[------------------------------------------------------------------|
G[-----------------9------------------------------------------------|
D[-------------------8-7\5---8-7-5-----------------7--(7)-/10-(10)--|
A[-------------------------7-----------------------5--(5)-/8--(8)---|
E[-000-000-000-000-----------------000-000-000-000------------------|

  Guitar 1

E[------------------------------------------------------------------|
B[-----------------8------------------------------------------------|
G[-------------------7-6-----7-6------------------------------------|
D[-----------------------8-7-----8-----------------10-(10)\5--(5)---|
A[-------------------------------------------------8--(8)-\3--(3)---|
E[-000-000-000-000-----------------000-000-000-000------------------|
 [Guitar 2
 [[------PM-------]       PM      [------PM-------]
E[------------------------------------------------------------------|
B[------------------------------------------------------------------|
G[-----------------9------------------------------------------------|
D[-------------------8-7\5---8-7-5-----------------10-(10)\5--(5)---|
A[-------------------------7-----------------------8--(8)-\3--(3)---|
E[-000-000-000-000-----------------000-000-000-000------------------|

 Main Riff

 [-----------PM-----------]        [------PM-------]
E---------------------------------------------------------------|
B---------------------------------------------------------------|
G---------------------------------------------------------------|
D---------------------------1010\9-------------------7-/-1010\9-|
A---------------------------8-8-\7-------------------5-/-8-8-\7-|
E-000-000-000-000-000-000-0--------000-000-000-000-0---0--------|Rpt

 Verse 

  [-----------PM------------]   [--------PM--------] 
E---------------------------------------------------------------|
B---------------------------------------------------------------|
G---------------------------------------------------------------|
D----------------------------109--------------------7--/12--109-|
A----------------------------8\7--------------------5--/10--8\7-|
E-000-000-000-000-000-000-00-----000-000-000-000-00-------------|

  
  [-----------PM------------]   [--------PM--------] 
E-------------------------------------------------------------|
B-------------------------------------------------------------|
G-------------------------------------------------------------|
D----------------------------109--------------------10---9----|
A----------------------------8\7--------------------8-10-7-9--|
E-000-000-000-000-000-000-00-----000-000-000-000-00---8----7--|

 Bridge

   [PM]   [PM] [--PM--] [PM]   [PM]   [PM]
E-------------------------------------------------------|
B-------------------------------------------------------|
G-------------------------------------------------------|
D-5-----4-----5-----7-----5---4-5-----4-----------------|
A-3-----2-----3-----5-----3---2-3-----2-----3----(3)----|
E---0-0---0-0---0-0---0-0---0-----0-0---0-0-1----(1)----|

   [PM]   [PM] [--PM--] [PM]   [PM]   [PM]            [-----PM-----]
E-------------------------------------------------------------------|
B-------------------------------------------------------------------|
G-------------------------------------------------------------------|
D-5-----4-----5-----7-----5---4-5-----4-------2p0-------------------|
A-3-----2-----3-----5-----3---2-3-----2-----3-----3-2-3-2---2-------|
E---0-0---0-0---0-0---0-0---0-----0-0---0-0-1-------------3---3-2-3-|

 Chorus
                                                           
E-----------------------------------------------------------|
B-----------------------------------------------------------|
G-----------------------------------------------------------|
D-----------------7---(7)--\4-/5------------------7---(7)---|
A-2---(2)---4-/5--5---(5)--\2-/3--2---(2)---4-/5--5---(5)---|
E-0---(0)---2-/3------------------0---(0)---2-/3------------|

  [---PM----]
E-------------|
B-------------|
G-------------|
D-5-5-5\4-4-4-|
A-3-3-3\2-2-2-|
E-------------|

 [-----PM----]   [-----PM----]   [-----PM----]
E---------------------------------------------------------|
B---------------------------------------------------------|
G---------------------------------------------------------|
D-------------------------------------------------5-----4-|
A-2-2-2-2-2-2-4/5-2-2-2-2-2-2-4/5-2-2-2-2-2-2-4/5-3-4/5-2-|
E-0-0-0-0-0-0-2/3-0-0-0-0-0-0-2/3-0-0-0-0-0-0-2/3---2/3---|

  [---PM----]
E-------------|
B-------------|
G-------------|
D-------------|
A-2-2-2-2-2-2-|
E-0-0-0-0-0-0-|

 Rpt Verse, Bridge and Chorus
 Rpt Main Riff and Verse riff for guitar solo backing.

E--------------------------|
B--------------------------|
G--------------------------|
D--------------------------|
A-7p5---3p2---2p0----------|
E-----7-----3-----2-3p2-0--| Rpt

 Rpt Chorus, Verse

    [-PM-]  [PM] PM   [----PM----] [-PM-]   [PM]
E------------------------------------------------------------|
B------------------------------------------------------------|
G------------------------------------------------------------|
D-5-------4-----5---7-------------5-------4------------------|
A-3-------2-----3---5-------------3-------2-----3----(3)-----|
E---0-0-0---0-0---0---0-0-0-0-0-0---0-0-0---0-0-1----(1)-----|Rpt 4 X

E--------------------------|
B--------------------------|
G--------------------------|
D--------------------------|
A-7p5---3p2---2p0-------2--|
E-----7-----3-----2-3p2-0--|





END
comments
We did not receive enough feedback on this tab! Please rate:
print report bad tab
1 2 3 4 5
I want to post or [tab]
guest
You may want to rate the tab now too:
select rating
Please do not post tabs as comments. Select "correction" instead!