Oops, an error
Loading. Please wait.

Sorry Bass Tab

188 views 1 this week
no commentswrite comment
1 2 3 4 5
3 more votes to show rating
add to favorites
launch autoscroll
font size
0
reset
guitar tuner
×
Best way to learn
"Sorry"
Autoscroll
slow
fast
+/-
esc
set tempo
stop
Difficulty
novice
Xink - Sorry

Intro
G|-------|------|----|---------|
D|-------|------|----|---------|
A|--5?-0-|------|----|---------|
E|-------|-7?-7-|-5--|-3-3-3-3-|

Couplet 
G|----------------|-----------------|
D|----------------|-----------------|
A|--5-5-5-5-5-5-5-|-----------------|
E|----------------|-7-7-7-7-7-7-7-7-|

G|----------------|------------------|
D|----------------|------------------|
A|----------------|------------------|
E|--5-5-5-5-5-5-5-|-3-3-3-3-3-3-3-3--|

Couplet2
G|----------------|-----------------|
D|----------------|-----------------|
A|--5-5-5-5-5-5-5-|-----------------|
E|----------------|-7-7-7-7-7-7-7-7-|

G|----------------|----|
D|----------------|----|
A|----------------|----|
E|--5-5-5-5-5-5-5-|-3--|

Refrein
G|----------------|---------------|
D|----------------|---------------|
A|--5-5-5-5-5-5-5-|---------------|
E|----------------|-7-7-7-7-7-7-7-|

G|----------------|---------------|
D|----------------|---------------|
A|----------------|---------------|
E|--3-3-3-3-3-3-3-|-5-5-5-5-5-5-5-|

Bridge
G|----------|----------|
D|----------|----------|
A|--------?-|----------|
E|--5?-5-7--|-8--8-10--|

Laatste Noot
G|-----|
D|-----|
A|--5--|
E|-----|

Volgorde
Intro 4x		
Couplet 3x	
Couplet2 1x	
Refrein 2x	
Intro 1x		
Couplet 3x	
Couplet2 1x	
Refrein 2x	
Bridge 4x	
Refrein 2x
Intro 1x
Couplet 2x (2e keer Laatste Noot)
Suggest correction
Give kudos to tab author, rate the tab!
1 2 3 4 5
comments
print report bad tab
guest
You may want to rate the tab now too:
select rating
Wanna post a correction for this tab? Suggest correction