Oops, an error
Loading. Please wait.

I Love The Valley Oh Tab

11,427 views 33 this week
no commentswrite comment
1 2 3 4 5
x 7
add to favorites
launch autoscroll
font size
0
reset
how to read this tab
guitar tuner
Autoscroll
slow
fast
+/-
esc
set tempo
stop
Help us to improve Ultimate-Guitar.com Take our survey!
×
Author
Difficulty
novice
                                Xiu Xiu- I luv the Valley OH

Bass riff (throughout almost the entire song)

E------------------------------------------------------------------------|
B------------------------------------------------------------------------|
G------------------------------------------------------------------------|
D---2-2-2-2--------------------------------------------------------------|
A-----------------------------3-3-3-3-2---2-2-2--------------------------|
E----------------3------3--3---------------------------------------------|
-

E------------------------------------------------------------------------|
B------------------------------------------------------------------------|
G------------------------------------------------------------------------|
D---2-2-2-2--------------------------------------------------------------|
A-----------------------------3-3-3-3-2---2-2-2--------------------------|
E----------------3------3--3---------------------------------------------|

Opening Riff (start to 0:07, comes in 0:27-0:49ish)

E---7—7-7--7—10-10-10-10-----------------------------------------------|
B---8---8-8--8—8---8—8—8-----------------------------------------------|
G---9---9-9--9—9---9---9—9---------------------------------------------|
D----------------------------------------------------------------------|
A----------------------------------------------------------------------|
E----------------------------------------------------------------------|


Melody (comes in 0:06 plays in backround)

E-----------7---------7--------7---------------7------------------|
B---------8—8---------8--------8---8-8-8-----8--------------------|
G-----------------------------------------------------------------|
D-----------------------------------------------------------------|
A-----------------------------------------------------------------|
E-----------------------------------------------------------------|



Break (comes in 1:14 and finishes the song at 2:05)

E----------------------------------------------------------------------|
B----------------------------------------------------------------------|
G----------------------------------------------------------------------|
D----------------------------------------------------------------------|
A---10-10—9—9---7---9---5-----10-10---9—9---7—9--10--------------------|
E----------------------------------------------------------------------|

Around 2:11 (same as above but one added “lick”)

E---------------------------------------------------------------------|
B---------------------------------------------------------------------|
G---------------------------------------------------------------------|
D---------------------------------------------------------------------|
A---10-10—9—9—7-9/14—14-12--------------------------------------------|
E---------------------------------------------------------------------|
Suggest correction
comments
print report bad tab
guest
You may want to rate the tab now too:
select rating
Wanna post a correction for this tab? Suggest correction