Oops, an error
Loading. Please wait.

Sakinah Tab

by XPDC
18,947 views 24 this week
no commentswrite comment
1 2 3 4 5
please rate
add to favorites
launch autoscroll
font size
0
reset
how to read this tab
guitar tuner
Tab Pro tools
  • play this tab
  • loop segment
  • change instrument
  • show fretboard
  • metronome
×
Best way to learn
"Sakinah"
Autoscroll
slow
fast
+/-
esc
set tempo
stop
"Sakinah" - XPDC
Guitar Tab
oleh - Bukhary Bab

Intro
Dimainkan sehingga habis solo intro

                     C               D              Em
E|--3-2-0-------------------2-----------------0---------|
B|----------------1------------3--------0---------------|
G|-------------------0----2----------------0------------|
D|-------------2-------0-------------2------------------|
A|----------3----------------------2--------------------|
E|------------------------------------------------------|

Solo intro
E|----------5-----------------------------------------------------------------|
B|--5-7-8----8-7-8-7-5------------------------------------------3p5--3p5------|
G|--------------------------7-5p4p2------------------5-4-2--------------------|
D|---------------------------------------5-4p5p4--2----------5----------------|
A|----------------------------------------------------------------------------|
E|----------------------------------------------------------------------------|

E|--7-8-10-8-7-5-|-8-7-5------------------------------------------------------|
B|----------------------------8-7-|-8-7-5--7-8-7-5--7-8-7-5--7-8-7-5----------|
G|----------------------------------------------------------------------------|
D|----------------------------------------------------------------------------|
A|----------------------------------------------------------------------------|
E|----------------------------------------------------------------------------|

E|--------------------------------------------------------------------------------------------------------|
B|---8-7-5--------------------------------7p8-8p10--8p7-8-5--7-8-7-5--7-8-7-5--7-8-7-5--7-8-7-5--7-8-7-5--|
G|----------7-5-4-----------------------------------------------------------------------------------------|
D|------------------7-5-4---------------------------------------------------------------------------------|
A|-------------------------7-5p7-7--|---------------------------------------------------------------------|
E|--------------------------------------------------------------------------------------------------------|

E|-----------------------------------------------------------|
B|-----------------------------------------------------------|
G|------------------5---7---4-------------5---7---4----------|
D|---2---5-4-2----5---7---2---5-4-2----5---7---2-------------|
A|---2-------------3---5------------------3---5--------------|
E|---0-------------------------------------------------------|

Solo verse
E|--------------5----------------------------------5---------------5p7--5p7-7-------|
B|------5-7-8----7h8-7-----3-5-5--|---5-7-8-----7h8-7-------------------------------|
G|---7---------------------7----------------------------------7---------------------|
D|----------------------------------------------------------------------------------|
A|----------------------------------------------------------------------------------|
E|----------------------------------------------------------------------------------|

E|--------------5------------------------------12-14-15-17-15-14-10-12-10p12-12-10p12-12-10p12-12-10p12--|
B|------5-7-8----7h8-7-----3-5-5--|---12-----------------------------------------------------------------|
G|---7---------------------7-----------------------------------------------------------------------------|
D|-------------------------------------------------------------------------------------------------------|
A|-------------------------------------------------------------------------------------------------------|
E|-------------------------------------------------------------------------------------------------------|


    Asalnya..... memang dulu aku tak percaya
E|---------------------------------------------------|
B|---------------------------------------------------|
G|--------4-------------5---7---4--------------------|
D|--------2---5-4-2----5---7---2---------------------|
A|-----------------------3---5-----------------------|
E|---------------------------------------------------|

Chorus
E|----------------------------------------------------|
B|----------------------------------------------------|
G|----5----7----7----9----4----5----7----4------------|
D|----5----7----5----7----4----5----7----2------------|
A|----3----5---------------2----3----5----------------|
E|----------------------------------------------------|

Lead ketika solo
E|---------------------------------------------|
B|---------------------------------------------|
G|---4-----4---2---4------2---------4----------|
D|---2--5--2-------2---5-----5-4---2-----------|
A|---------------------------------------------|
E|---------------------------------------------|
comments
We did not receive enough feedback on this tab! Please rate:
print report bad tab
1 2 3 4 5
I want to post or [tab]
guest
You may want to rate the tab now too:
select rating
Please do not post tabs as comments. Select "correction" instead!