Oops, an error
Loading. Please wait.

Crush You bass

52 views 1 this week
no commentswrite comment
1 2 3 4 5
3 more votes to show rating
add to favorites
×
Save as Personal and add changes to this tab that will be seen only by you. Learn more ›
×
You can save this tab as Personal to edit and correct it or add notes. All changes will be seen only by you. Learn more »
launch autoscroll
font size
0
reset
guitar tuner
edit
Autoscroll
slow
fast
+/-
esc
set tempo
stop
Author
Difficulty
intermediate
                         Xplore Yesterday - CRUSH YOU 
                            

tabbed by: Joey Young
email    : joey@xyofficial.com
website  : www.xyofficial.com
Facebook : XYofficial
Twitter  : XYrock
Video    : http://www.youtube.com/watch?v=ySYZKLe8caU


Notation:                                

  \      : slide down               
  /      : slide up                 
  x      : mute note
  h      : hammer


BPM: 184

-> For 5 string bass <-


Intro :


G|-------------------------------------------|
D|-------------------------------------------|
A|-------------------------------------------|
E|-3--3----3----3--4--3----3----3----3--6--3-|
B|-------------------------------------------|
    
                                         
G|-------------------------------------------|
D|-------------------------------------------|
A|-------------------------------------------| 
E|----3----3----3--4--3----------------------|
B|-----------------------2--------3----------|


G|-------------------------------------------|
D|-------------------------------------------|
A|-------------------------------------------|
E|-3--3----3----3--4--3----3----3----3--6--3-|
B|-------------------------------------------|
  
                                           
G|-------------------------------------------|
D|-------------------------------------------|
A|-------------------------------------------| 
E|----3----3----3--4--3----------------------|
B|-----------------------4--------3----------|



Verse 1 :


G|-------------------------------------------|
D|-------------------------------------------|
A|-------------------------------------------| 
E|-3--3----3----3--1--3\---------------------|
B|-------------------------------------------|            
                                             |
                                             |
G|-------------------------------------------|
D|-------------------------------------------|
A|-------------------------------------------| 
E|-3--3----3----3--6--3\---------------------|
B|-------------------------------------------|
                                             |(x2)
                                             |   
G|-------------------------------------------|
D|-------------------------------------------|
A|-------------------------------------------| 
E|-3--3----3----3--1--3\---------------------|
B|-------------------------------------------|
                                             |
                                             |
G|-------------------------------------------|
D|-------------------------------------------|
A|-------------------------------------------| 
E|-------------------------------------------|
B|-4-------------------3---------------------|


G|-------------------------------------------|
D|-------------------------------------------|
A|-------------------------------------------|(x2)
E|-3--3--3----3--3--3--------3-------1-------|
B|-------------------------------------------|


G|-------------------------------------------|
D|-------------------------------------------|
A|--------------------------------------0--1-| 
E|-3--3--3----3--3--3----1---3---------------|
B|-------------------------------------------|


G|-------------------------------------------|
D|-------------------------------------------|
A|-3-------------------5---------------------| 
E|-------------------------------------------|
B|-------------------------------------------|



Chorus 1: 


G|-------------------------------------------|
D|-------------------------------------------|
A|-------------------------------------------|
E|-3--3----3----3--4--3----3----3----3--6--3-|
B|-------------------------------------------|
                                             

G|-------------------------------------------|
D|-------------------------------------------|
A|-------------------------------------------| 
E|----3----3----3--4--3----------------------|
B|-----------------------2--------3----------|


G|-------------------------------------------|
D|-------------------------------------------|
A|-------------------------------------------|
E|-3--3----3----3--4--3----3----3----3--6--3-|
B|-------------------------------------------|
                                             

G|-------------------------------------------|
D|-------------------------------------------|
A|-------------------------------------------| 
E|----3----3----3--4--3----------------------|
B|-----------------------4--------3----------|



Verse 2:


G|-------------------------------------------|
D|-------------------------------------------|
A|-------------------------------------------| 
E|-3--3----3----3--1--3\---------------------|
B|-------------------------------------------|            
                                             |
                                             |
G|-------------------------------------------|
D|-------------------------------------------|
A|-------------------------------------------| 
E|-3--3----3----3--6--3\---------------------|
B|-------------------------------------------|
                                             |(x2)    
                                             |
G|-------------------------------------------|
D|-------------------------------------------|
A|-------------------------------------------| 
E|-3--3----3----3--1--3\---------------------|
B|-------------------------------------------|
                                             |
                                             |
G|-------------------------------------------|
D|-------------------------------------------|
A|-------------------------------------------| 
E|-------------------------------------------|
B|-4-------------------3---------------------|


G|-------------------------------------------|
D|-------------------------------------------|
A|-------------------------------------------|(x2)
E|-3--3--3----3--3--3--------3------1--------|
B|-------------------------------------------|


G|-------------------------------------------|
D|-------------------------------------------|
A|--------------------------------------0--1-| 
E|-3--3--3----3--3--3----1---3---------------|
B|-------------------------------------------|


G|-------------------------------------------|
D|-------------------------------------------|
A|-3--------------------5--------------------| 
E|-------------------------------------------|
B|-------------------------------------------|


G|-------------------------------------------|
D|-------------------------------------------|
A|-6------------------------------------5--6-| 
E|-------------------------------------------|
B|-------------------------------------------|


G|-------------------------------------------|
D|-------------------------------------------|
A|-8-----------------------------------------| 
E|-------------------------------------------|
B|-------------------------------------------|


G|-------------------------------------------|
D|-------------------------------------------|
A|10-10-10-10-10-10-10-10-10-10-10-10-10-10-8| 
E|-------------------------------------------|
B|-------------------------------------------|


G|-------------------------------------------|
D|--------------------------------7-8-7------|
A|-10-10-10-10-10-10-10-10-10-8-10-----10--8-| 
E|-------------------------------------------|
B|-------------------------------------------|


G|-------------------------------------------|
D|-------------------------------------------|
A|---------------------/8----------6---------| 
E|------------------6----------------------6-|
B|-4-----------------------------------------|


G|-------------------------------------------|
D|-------------------------------------------|
A|----------------------8-10-8---------------| 
E|------------------8------------------------|
B|-6-----------------------------------------|


G|-------------------------------------------|
D|-------------------------------------------|
A|-------------------------------------------| 
E|-------------------------------------------|
B|-3--------------------2---------3----------|


G|-------------------------------------------|
D|-------------------------------------------|
A|-------------------------------------------| 
E|-----------3----------2--------------------|
B|-4------------------------------3----------|



Chorus 2 (same as Chorus 1) (x2)


Bridge:


G|-------------------------------------------|
D|-------------------------------------------|
A|-------------------------------------------| 
E|-------------------------------------------|
B|-1-----------------------------------------|


G|-------------------------------------------|
D|-------------------------------------------|
A|-------------------------------------------| 
E|-------------------------------------------|
B|-------------------------------------------|


G|-------------------------------------------|
D|-------------------------------------------|
A|-------------------------------------------| 
E|/8----------8\-----------------------------|
B|-------------------------------------------|


G|-------------------------------------------|
D|-------------------------------------------|
A|-------------------------------------------| 
E|-------------------------------------------|
B|-------------------------------------------|


G|-------------------------------------------|
D|-------------------------------------------|
A|-------------------------------------------|(x3) 
E|-------------------------------------------|
B|-1--1-----------1--1-----------------------|


G|-------------------------------------------|
D|-------------------------------------------|
A|-------------------------------------------| 
E|---------------------/8--------------------|
B|-1--1-----------1--1-----------------------|


G|-------------------------------------------|
D|-------------------------------------------|
A|-------------------------------------------| 
E|-------------------------------------------|
B|-1-----------------------------------------|
                                             |
                                             |
G|-------------------------------------------|
D|-------------------------------------------|
A|-------------------------------------------| 
E|-------------------------------------------|
B|-3-----------------------------------------|
                                             |(x2)
                                             |
G|-------------------------------------------|
D|-------------------------------------------|
A|-------------------------------------------| 
E|-------------------------------------------|
B|-4-----------------------------------------|
                                             |
                                             |
G|-------------------------------------------|
D|-------------------------------------------|
A|-------------------------------------------| 
E|-1-------------------3---------------------|
B|-------------------------------------------|



Outro:

G|-------------------------------------------|
D|-------------------------------------------|
A|-------------------------------------------|
E|-------------------------------------------|
B|-1--1----1----1--2--1----1----1----1--4--1-|
                                             

G|-------------------------------------------|
D|-------------------------------------------|
A|-------------------------------------------|
E|----------------------/2--------3----------|
B|----1----1----1--2--1----------------------|


G|-------------------------------------------|
D|-------------------------------------------|
A|-------------------------------------------|
E|-------------------------------------------|
B|-1--1----1----1--2--1----1----1----1--4--1-|
                                             

G|-------------------------------------------|
D|-------------------------------------------|
A|-------------------------------------------|
E|-------------------------------------------|
B|----1----1----1--2--1----------------------|


G|-------------------------------------------|
D|-------------------------------------------|
A|-------------------------------------------|
E|-------------------------------------------|
B|-1--1----1----1--2--1----1----1----1--4--1-|
                                             

G|-------------------------------------------|
D|-------------------------------------------|
A|-------------------------------------------|
E|----------------------/2--------3----------|
B|----1----1----1--2--1----------------------|


G|-------------------------------------------|
D|-------------------------------------------|
A|-------------------------------------------|
E|-------------------------------------------|
B|-1--1----1----1--2--1----1----1----1--4--1-|
                                             

G|-------------------------------------------|
D|-------------------------------------------|
A|-------------------------------------------|
E|----------------------/4--------3----------|
B|----1----1----1--2--1----------------------|


G|-------------------------------------------|
D|-------------------------------------------|
A|-------------------------------------------|
E|-------------------------------------------|
B|-1--1----1----1--2--1----1----1----1--4--1-|
                                             

G|-------------------------------------------|
D|-------------------------------------------|
A|--------------------------6-------5--------|
E|-------------------------------------------|
B|----1----1----1--2--1-------4-------3------|


G|-------------------------------------------|
D|-------------------------------------------|
A|-------------------------------------------|
E|-------------------------------------------|
B|-1--1----1----1--2--1----1----1----1--4--1-|

                                               
G|--------------------------------------------------------|
D|--------------------------------------------------------|
A|--------------------------------------------------------|
E|--------------------------------------------------------|
B|----1----1----1--2--1--11-9-8-x-9-8-6-x-8-6-4-x-6-4-3-x-|


G|------------------------------------------------|
D|------------------------------------------------|
A|------------------------------------------------| 
E|------------------------------------------------|
B|-1--1--1--1--1--1--2--1--1--1--1--1--1--1--4--1-|


G|------------------------------------------------|
D|------------------------------------------------|
A|---------------------------6-------5--2---------| 
E|------------------------------------------------|
B|-1--1--1--1--1--1--2--1-------4-----------------|


G|------------------------------------------------|
D|------------------------------------------------|
A|------------------------------------------------| 
E|------------------------------------------------|
B|-1-1-1-1-1-1-1-1-1-2-1-------------/8-----------|


G|------------------------------------------------|
D|------------------------------------------------|
A|-----------------------------x-3h4-3------------| 
E|------------------------------------------------|
B|-1-1-1-1-1-1-1-1-1-2-1---------------x-5-4-2----|


            
            
Suggest correction
Creating personal tab
Creating personal tab
You can edit any tab online and save it as your Personal.

You can edit, replace or remove any tab part or add personal notes – all changes will be seen only by you.

Personal tabs can be accessed anytime from any device, even offline.
Learn more »
Give kudos to tab author, rate the tab!
1 2 3 4 5
comments
print report bad tab
guest
You may want to rate the tab now too:
select rating
Wanna post a correction for this tab? Suggest correction