Oops, an error
Loading. Please wait.

Helicopter Bass Tab

by XTC
10 views 10 this week
no commentswrite comment
1 2 3 4 5
3 more votes to show rating
add to favorites
launch autoscroll
font size
0
reset
guitar tuner
Autoscroll
slow
fast
+/-
esc
set tempo
stop
Help us to improve Ultimate-Guitar.com Take our survey!
×
Author
Difficulty
novice
Bass Start - 00:03


[Intro]
G|--------------------|--------------------|---------|--------------|
D|--------------------|--------------------|-2-------|2-------------|
A|--------------------|--------------------|----2----|---2----------|
E|-4p2--4p2--4p2--4p2-|-4p2--4p2--4p2--4p2-|---------|---------7-5-7|

G|------------|------------|
D|------------|------------|
A|-5--5--5--5-|-7--7--7--7-|
E|------------|------------|

[Verse 1]
G|----------------|----------------|----------------|----------------|
D|-6-7-----6-7----|-7-----/--------|-6-7-----6-7----|-6-7-----6-7----|
A|-----6-7-----6-7|----------------|-----6-7-----6-7|-----6-7-----6-7|
E|----------------|----------------|----------------|----------------|

G|----------------|----------------|-------------|--------------|
D|-6-7-----6-7----|-6-7-----6-7----|-------------|--------------|
A|-----6-7-----6-7|-----6-7-----7-\|-3--3--3-0-3-|-2--2--2---2-/|
E|----------------|----------------|-------------|---------2----|

G|----------------|----------------|----------------|----------------|
D|-6-7-----6-7----|-6-7-----6-7----|-6-7-----6-7----|-6-7-----6-7----|
A|-----6-7-----6-7|-----6-7-----6-7|-----6-7-----6-7|-----6-7-----6-7|
E|----------------|----------------|----------------|----------------|

G|----------------|----------------|-------------|----------------|
D|-6-7-----6-7----|-6-7-----6-7----|-------------|----------------|
A|-----6-7-----6-7|-----6-7-----7-\|-3--3--3-0-3-|-2--2--2---2/12\|
E|----------------|----------------|-------------|---------2------|

G|------------------|-------------------|-------------------|-------------------|-------------------|------|
D|------------------|-------------------|-------------------|-------------------|-------------------|------|
A|------------------|-------------------|-------------------|-------------------|-------------------|------|
E|7--7-/-12-12-12-12|-7--7-/-12-12-12-12|-7--7-/-12-12-12-12|-7--7-/-12-12-12-12|-7--7-/-12-12-12-12|-7----|

[Chorus]
G|--------------------|--------------------|---------|---------------| 
D|--------------------|--------------------|-2-------|2--------------|
A|--------------------|--------------------|----2----|---2----2------|
E|-4p2--4p2--4p2--4p2-|-4p2--4p2--4p2--4p2-|---------|----------4-2-4|

G|--------------------|--------------------|---------|---------------| 
D|--------------------|--------------------|-2-------|2--------------|
A|--------------------|--------------------|----2----|---2----2------|
E|-4p2--4p2--4p2--4p2-|-4p2--4p2--4p2--4p2-|---------|----------4-2-4|

G|--------------------|--------------------|---------|--------------|
D|--------------------|--------------------|-2-------|2-------------|
A|--------------------|--------------------|----2----|---2----------|
E|-4p2--4p2--4p2--4p2-|-4p2--4p2--4p2--4p2-|---------|---------7-5-7|

G|------------|------------|
D|------------|------------|
A|-5--5--5--5-|-7--7--7--7-|
E|------------|------------|

[Verse 2]
G|----------------|----------------|----------------|----------------|
D|-6-7-----6-7----|-6-7-----6-7----|-6-7-----6-7----|-6-7-----6-7----|
A|-----6-7-----6-7|-----6-7-----6-7|-----6-7-----6-7|-----6-7-----6-7|
E|----------------|----------------|----------------|----------------|

G|----------------|----------------|-------------|--------------|
D|-6-7-----6-7----|-6-7-----6-7----|-------------|--------------|
A|-----6-7-----6-7|-----6-7-----7-\|-3--3--3-0-3-|-2--2--2---2-/|
E|----------------|----------------|-------------|---------2----|

G|----------------|----------------|----------------|----------------|
D|-6-7-----6-7----|-6-7-----6-7----|-6-7-----6-7----|-6-7-----6-7----|
A|-----6-7-----6-7|-----6-7-----6-7|-----6-7-----6-7|-----6-7-----6-7|
E|----------------|----------------|----------------|----------------|

G|----------------|----------------|-------------|----------------|
D|-6-7-----6-7----|-6-7-----6-7----|-------------|----------------|
A|-----6-7-----6-7|-----6-7-----7-\|-3--3--3-0-3-|-2--2--2---2/11\|
E|----------------|----------------|-------------|---------2------|

G|------------------|-------------------|-------------------|-------------------|-------------------|------|
D|------------------|-------------------|-------------------|-------------------|-------------------|------|
A|------------------|-------------------|-------------------|-------------------|-------------------|------|
E|7--7-/-12-12-12-12|-7--7-/-12-12-12-12|-7--7-/-12-12-12-12|-7--7-/-12-12-12-12|-7--7-/-12-12-12-12|-7----|

[Chorus]
G|--------------------|--------------------|---------|---------------| 
D|--------------------|--------------------|-2-------|2--------------|
A|--------------------|--------------------|----2----|---2----2------|
E|-4p2--4p2--4p2--4p2-|-4p2--4p2--4p2--4p2-|---------|----------4-2-4|

G|--------------------|--------------------|---------|---------------| 
D|--------------------|--------------------|-2-------|2--------------|
A|--------------------|--------------------|----2----|---2----2------|
E|-4p2--4p2--4p2--4p2-|-4p2--4p2--4p2--4p2-|---------|----------4-2-4|

G|--------------------|--------------------|---------|--------------|
D|--------------------|--------------------|-2-------|2-------------|
A|--------------------|--------------------|----2----|---2----------|
E|-4p2--4p2--4p2--4p2-|-4p2--4p2--4p2--4p2-|---------|---------7-5-7|

G|------------|------------|----------------|---------------|
D|------------|------------|----------------|---------------|
A|-5-5---5-5--|-7-7---7-7--|-9-9-9-9-9-9-9-9|-9\------------|
E|------------|------------|----------------|---------------|

[Instrumental]
G|--------------------|--------------------|---------|---------------| 
D|--------------------|--------------------|-2-------|2--------------|
A|--------------------|--------------------|----2----|---2----2------|
E|-4p2--4p2--4p2--4p2-|-4p2--4p2--4p2--4p2-|---------|----------4-2-4|

G|--------------------|--------------------|---------|---------------| 
D|--------------------|--------------------|-2-------|2--------------|
A|--------------------|--------------------|----2----|---2----2------|
E|-4p2--4p2--4p2--4p2-|-4p2--4p2--4p2--4p2-|---------|----------4-2-4|

G|--------------------|--------------------|---------|--------------|
D|--------------------|--------------------|-2-------|2-------------|
A|--------------------|--------------------|----2----|---2----------|
E|-4p2--4p2--4p2--4p2-|-4p2--4p2--4p2--4p2-|---------|---------7-5-7|

G|------------|-------------|----------------|---------------|
D|------------|-------------|----------------|---------------|
A|-5--5--5--5-|-7--7--7--7-/|-9-9-9-9-9-9-9-9|-9\------------|
E|------------|-------------|----------------|---------------|

[Chorus]
G|--------------------|--------------------|---------|---------------| 
D|--------------------|--------------------|-2-------|2--------------|
A|--------------------|--------------------|----2----|---2----2------|
E|-4p2--4p2--4p2--4p2-|-4p2--4p2--4p2--4p2-|---------|----------4-2-4|

G|--------------------|--------------------|---------|---------------| 
D|--------------------|--------------------|-2-------|2--------------|
A|--------------------|--------------------|----2----|---2----2------|
E|-4p2--4p2--4p2--4p2-|-4p2--4p2--4p2--4p2-|---------|----------4-2-4|

G|--------------------|--------------------|---------|--------------|
D|--------------------|--------------------|-2-------|2-------------|
A|--------------------|--------------------|----2----|---2----------|
E|-4p2--4p2--4p2--4p2-|-4p2--4p2--4p2--4p2-|---------|---------7-5-7|

G|------------|-------------|----------------|---------------|
D|------------|-------------|-9-9-9-9-9-9-9-9|-9-9-8----\----| 
A|-5--5--5--5-|-7--7--7--7-7|----------------|---------------|
E|------------|-------------|----------------|---------------| * \ slowly

[Outro]
G|--------------------|--------------------|---------|---------------| 
D|--------------------|--------------------|-2-------|2--------------|
A|--------------------|--------------------|----2----|---2----2------|
E|-4p2--4p2--4p2--4p2-|-4p2--4p2--4p2--4p2-|---------|----------4-2-4|

G|--------------------|--------------------|---------|---------------| 
D|--------------------|--------------------|-2-------|2--------------|
A|--------------------|--------------------|----2----|---2----2------|
E|-4p2--4p2--4p2--4p2-|-4p2--4p2--4p2--4p2-|---------|----------4-2-4|

G|--------------------|--------------------|---------|--------------|
D|--------------------|--------------------|-2-------|2-------------|
A|--------------------|--------------------|----2----|---2----------|
E|-4p2--4p2--4p2--4p2-|-4p2--4p2--4p2--4p2-|---------|---------7-5-7|

G|------------|------------|----------------|---------------|
D|------------|------------|-6-7-----6-7----|-7-------------|
A|-5-5---5-5--|-7-7---7--7-|-----6-7-----6-7|---------------|
E|------------|------------|----------------|---------------|



********************

| / slide up
| \ slide down
| p pull-off

********************
Suggest correction
Give kudos to tab author, rate the tab!
1 2 3 4 5
comments
print report bad tab
guest
You may want to rate the tab now too:
select rating
Wanna post a correction for this tab? Suggest correction