Oops, an error
Loading. Please wait.

Making Plans For Nigel Tab

version 1
version 1

Whole song

Interactive

by XTC
5,566 views 18 this week
2 commentsread comments
1 2 3 4 5
accurate
x 3
add to favorites
launch autoscroll
font size
0
reset
how to read this tab
guitar tuner
Autoscroll
slow
fast
+/-
esc
set tempo
stop
Help us to improve Ultimate-Guitar.com Take our survey!
×
Difficulty
novice
Hi all, Making plans for nigel has got to be one of XTC`s best songs...
amognst all their other amazing songs, and I thought I`d have a go at tabbing it, so 
here goes.....

(Drum intro)
GUITAR 1 & 2: Intro
E|-----------|
B|-----------|
G|-3-----3---|
D|-3--3--3--3|
A|-1--3--1--3|
E|----1-----1|

GUITAR 1: Verse
E|-------------|
B|-------------|
G|-14---14--10-|
D|-------------|
A|-------------|
E|-------------|
GUITAR 2: Verse
E|------------------------------------|
B|------------------------------------|
G|-----------5---5-----3---3-----3---3|
D|-3---3-----5---5-----3---3-----3---3|
A|-3---3-----3---3-----1---1-----1---1|
E|-1---1------------------------------|
GUITAR 1: Interlude
E|-----------------------|
B|-----------------------|
G|-12--14---12----14---12|
D|-----------------------|
A|-----------------------|
E|-----------------------|


I will work out the rest and post it asap, hope this will help =]
Tabbed by: Tommy Cartmell (Massive XTC fan)
Suggest correction
What's this?
You can suggest a correction to this tab. Community and Mods will review your correction and vote to approve or reject it.
comments
We did not receive enough feedback on this tab! Please rate:
print report bad tab
1 2 3 4 5
2 comments total.
0 reply
JRCALI 13 wrote on November 21 2013, 05:41 pm

For your intro, try repeating (V=downstroke ^=upstroke). I'm pretty sure that this is what he's doing. Just double stops.

V ^
E|-----------|
B|12---10----|
G|14---12----|
D|-----------|
A|-----------|
E|-----------|

0 reply
JRCALI 13 wrote on November 21 2013, 05:44 pm

Wow - I left out the slide, sorry about that. This is better.

V ^
E|-------------|
B|12---12/10---|
G|14---14/12---|
D|-------------|
A|-------------|
E|-------------|

guest
You may want to rate the tab now too:
select rating
Please do not post tabs as comments. Select "correction" instead!