Oops, an error
Loading. Please wait.

Mermaid Smiled Bass Tab

version 1
version 1

Whole song

Interactive

by XTC
89 views 1 this week
no commentswrite comment
1 2 3 4 5
3 more votes to show rating
add to favorites
launch autoscroll
font size
0
reset
guitar tuner
Autoscroll
slow
fast
+/-
esc
set tempo
stop
Help us to improve Ultimate-Guitar.com Take our survey!
×
Author
Difficulty
Tuning
intermediate
D A D G B E
XTC - MERMAID SMILED

ONLY A SHORT TRACK BUT ONE OF THEIR ABSOLUTE BEST. DROP-D TUNING.

Bass starts at (1.14)

G----------------------|
D----------------------|
A-7----4----2----------|
D----5----4----2-------|

G----------------------|
D-----------2----------|
A---2---4-2---2--------|
D-2---4----------------|

G----------------------|
D----------------------|
A-7----4----2----------|
D----5----4----2-------|


(1.27)

"Summoned by drum-rolling surf..."
G-----------------------|
D-0-77-0-77-0-77-0-77---|
A-----0----0----0----0--|
D-----------------------|

G-----------------------|
D-0-99-0-99-0-99-0-99---|
A-----0----0----0----0--|
D-----------------------|

G---66---66---66---66---|
D-0----0----0----0------|
A-----0----0----0----0--|
D-----------------------|

G-----------------------|
D-0-99-0-99-0-99-0-99---|
A-----0----0----0----0--|
D-----------------------|

(1.38)

"Breakers pillow fight the shore"
G-----------------------------------|
D-4-4-2-2----------420---24---------|
A---------5-5-4-4-2---420--0235320--|
D-----------------------------------|

(1.45)

"She wriggles free of the tide"
G-----------------------|
D-0-77-0-77-0-77-0-77---|
A-----0----0----0----0--|
D-----------------------|

G-----------------------|
D-0-99-0-99-0-99-0-99---|
A-----0----0----0----0--|
D-----------------------|

G---66---66---66---66---|
D-0----0----0----0------|
A-----0----0----0----0--|
D-----------------------|

G-------------|
D-0-99-0-99---|
A-----0----0--|
D-------------|

(1.55)

"I was lucky to remain beguiled..."
G------------------2454-----|
D------0123-2-0-2-3----75/--|
A-01234---------------------|
D---------------------------|

G-------------------|
D-----4-5-7-5-4-----|
A-0-4-----------7/--|
D-------------------|

G------------------|
D-3-2-0------------|
A-------3-2-0------|
D-------------5-3--|

G--------------------|
D-2---2---3-2-0------|
A---2---2-------3----|
D-----------------5--|

"....Smiled"
G-------------------|
D-------------------|
A-7----4---2--------|
D----5---4----0>>>--| End on this and let ring.
Suggest correction
Give kudos to tab author, rate the tab!
1 2 3 4 5
comments
print report bad tab
guest
You may want to rate the tab now too:
select rating
Wanna post a correction for this tab? Suggest correction