Oops, an error
Loading. Please wait.

Senses Working Overtime Chords

version 3
version 3

Whole song

Interactive

by XTC
175 views 1 this week
no commentswrite comment
1 2 3 4 5
2 more votes to show rating
add to favorites
launch autoscroll
font size
0
reset
transpose
0
reset
display chords
guitar tuner
Autoscroll
slow
fast
+/-
esc
set tempo
stop
Help us to improve Ultimate-Guitar.com Take our survey!
×
Author
Most of the versions of this song I sound to be incorrect so I decided to tab it out myself.
Hope you guys enjoy this one!




Intro Riff:
1----------------------------|    
2------0-------0--0--0--0----|
3---8--8--8----6--6--6--6----| Repeat X 4
4---6-----6----8-----8-------|
5----------------------------|
6----------------------------|

1----------------------------|
2----------------------------|
3--6-6-6---------------------|  Repeat X 4
4--6-6-6----2-2-2------------|
5--4-4-4----2-2-2------------|
6-----------0-0-0------------|



G#m  F#       G#m        F#             G#m           F#
Hey, hey, the clouds are whey.  There's straw for the donkeys
        G#m           F#         C#m     Em      C#m
And the innocents can all sleep safely------------------------,
Em           C#m     Em     C#m     Em  
All--- sleep safely.
 
My, my, sun is pie.  There's fodder for the cannons
And the guilty ones can all sleep safely, all sleep safely.
 
A           Asus4                   A               Asus4           B
And all the world is football-shaped, it's just for me to kick in space
          Bsus4                    B
And I can see, hear, smell, touch, taste
 
CHORUS:
             E    E    B      B     E                   A   E     B
And I've got one, two, three, four, five senses working o - ver – time.
A         B         E
Trying to take this all in.
B        E    E    B      B     E                   A   E     B
I've got one, two, three, four, five senses working o - ver – time.
A                   B                    A           B 
Trying to taste the difference between a lemon and a lime
A        B                E                   
Pain and pleasure and the church bells softly chime.
 
Guitar Fill
1---0--0--0--0-------------------|
2---5--4--2--0-------------------|
3--------------------------------|
4--------------------------------|
5--------------------------------|
6--------------------------------|


Hey, hey, night fights day.  There's food for the thinkers
And the innocents can all live slowly, all live slowly.
My, my, the sky will cry.  Jewels for the thirsty
And the guilty one's can all die slowly, all die slowly.
 
And all the world is biscuit-shaped, it's just for me to feed my face
And I can see, hear, smell, touch, taste.
 
CHORUS
 
BRIDGE:
A    G    A    G
 
A   G           A         G          A     G        A    G
And birds might fall from black skies----- Whoo!  Whoo!
And bullies might give you black eyes – Whoo!  Whoo!
And buses might skid on black ice – Whoo!  Whoo!
A       G           A     G      Asus4  A Asus4  A    Bbsus4  B  Bbsus4  B
But, to me, they're very, ve—ry- beau—ti-ful!    (England's glory!)
Asus4    Asus4 A    Bbsus4  B  Bbsus4  B
Beau---ti-ful----!    (A striking beauty!)


Bridge Riff:
1-------------------0---------|
2-----0----------3---3--------|
3----6---0-2----0-----0-------|
4---7----------5--------------|
5--0--------------------------|
6-----------------------------|


D
Doo-doo-doo-doo!    Doo-doo-doo-doo!  Doo-doo-doo!
Bb
Doo-doo-doo-doo!    Doo-doo-doo-doo!  Doo-doo-doo!
D
Doo-doo-doo-doo!    Doo-doo-doo-doo!  Doo-doo-doo!
Bb                 F
Doo-doo-doo-doo!  Doo-doo-doo-doo!
 

D-Bb Riff
1--------10----------10----------|
2-7-8-10------7-8-10------7-8-10-|
3--------------------------------|
4--------------------------------|
5--------------------------------|
6--------------------------------|

1--------------------------------|
2--------11----------11----------|
3-7-8-10------7-8-10------7-8-10-|
4--------------------------------|
5--------------------------------|
6--------------------------------|

Last Time:
1----------13--------------------|
2-10-11-13-----------------------|
3--------------------------------|
4--------------------------------|
5--------------------------------|
6--------------------------------|



Bb          Bbsus4                 Bb               Bbsus4           C
And all the world is football-shaped, it's just for me to kick in space
          Csus4                    C
And I can see, hear, smell, touch, taste
 
CHORUS:
             F    F    C      C     F                   Bb  F     C
And I've got one, two, three, four, five senses working o - ver – time.
Bb        C         F
Trying to take this all in.
C        F    F    C      C     F                   Bb  F     C
I've got one, two, three, four, five senses working o - ver – time.
Bb                  C                      Bb        C      Bb       
Trying to taste the difference between the goods and crime, dirt or 
C
treasure.

Guitar Fill
1--------------------------------|
2---6--5--3----------------------|
3------------5-------------------|
4--------------------------------|
5--------------------------------|
6--------------------------------|


            F    F    C      C     F                   Bb  F     C
And there's one, two, three, four, five senses working o - ver – time.
Bb        C         F
Trying to take this all in.
C        F    F    C      C     F                   Bb   F    C
I've got one, two, three, four, five senses working o - ver – time.
Bb                  C                      Bb        C
Trying to taste the difference between the lemon and lime.
Bb       C                F
Pain and pleasure and the church bells softly chime. 
Suggest correction
Give kudos to tab author, rate the tab!
1 2 3 4 5
comments
print report bad tab
guest
You may want to rate the tab now too:
select rating
Wanna post a correction for this tab? Suggest correction