Oops, an error
Loading. Please wait.

When Youre Near Me I Have Difficulty bass

version 1
version 1

Whole song

Interactive

by XTC
19 views 1 this week
no commentswrite comment
1 2 3 4 5
3 more votes to show rating
add to favorites
×
Save as Personal and add changes to this tab that will be seen only by you. Learn more ›
×
You can save this tab as Personal to edit and correct it or add notes. All changes will be seen only by you. Learn more »
launch autoscroll
font size
0
reset
guitar tuner
edit
Autoscroll
slow
fast
+/-
esc
set tempo
stop
XTC - When you're near me I have Difficulty
from Drum and Wires (1979)

Lots of slides here

Tabbed by Leo Chiurco

[Intro]
G|---------------------------------|---------------------------------|
D|---------------------------------|---------------------------------|
A|---------------------------------|---------------------------------|
E|-3.------------------------------|---------------------------------|
   1 + + + 2 + + + 3 + + + 4 + + +   1 + + + 2 + + + 3 + + + 4 + + +

G|---------------------------------|---------------------------------|
D|---------------------------------|---------------------------------|
A|---------------------------------|---------5---------------7-------|
E|---------------------------------|-3---3-------3---5---5-------5---|
   1 + + + 2 + + + 3 + + + 4 + + +   1 + + + 2 + + + 3 + + + 4 + + +

[Verse 1] "When you're near me ..."
G|---------------------------------|---------------------------------|
D|/10----------9-------------------|---------------------------------|
A|---------------------------------|---------------------------------| (x7)
E|-------------------------7\------|-3-----------5-----------3/------|
   1 + + + 2 + + + 3 + + + 4 + + +   1 + + + 2 + + + 3 + + + 4 + + +

G|---------------------------------|---------------------------------|
D|/10----------9-------------------|---------------------------------|
A|---------------------------------|---------------------------------|
E|-------------------------7\------|-3-----------5---------------1---|
   1 + + + 2 + + + 3 + + + 4 + + +   1 + + + 2 + + + 3 + + + 4 + + +

[Pre-chorus 1] "I used to stand proud like a sphinx ..."
G|-------------3.--3.--1-h-3-------|---------------------------------|
D|---------------------------------|-------------3.--3.--1-h-3-------|
A|-1-------------------------------|---------------------------------| (x2)
E|---------------------------------|-1-------------------------------|
   1 + + + 2 + + + 3 + + + 4 + + +   1 + + + 2 + + + 3 + + + 4 + + +

G|-------------3.--3.--1-h-3-------|---------------------------------|
D|---------------------------------|-------------3.--3---------------|
A|-1-------------------------------|-----------------------------3---|
E|---------------------------------|-1-------------------------------|
   1 + + + 2 + + + 3 + + + 4 + + +   1 + + + 2 + + + 3 + + + 4 + + +

[Chorus 1] "Now I'm feeling like a jelly fish ..."
G|---------------------------------|---------------------------------|
D|-3-------------------------------|-3-----------------------3/------|
A|-----------------------------3---|---------------------------------|
E|---------------------------------|---------------------------------|
   1 + + + 2 + + + 3 + + + 4 + + +   1 + + + 2 + + + 3 + + + 4 + + +

G|---------------------------------|---------------------------------|
D|-10------------------------------|-10----------------------\-------|
A|---------------------------------|---------------------------------|
E|---------------------------------|---------------------------------|
   1 + + + 2 + + + 3 + + + 4 + + +   1 + + + 2 + + + 3 + + + 4 + + +

G|-------------7---------------7---|-------------8---------------8---|
D|---------7---------------7-------|---------8---------------8-------|
A|-----5---------------5-----------|-----6---------------6-----------|
E|---------------------------------|---------------------------------|
   1 + + + 2 + + + 3 + + + 4 + + +   1 + + + 2 + + + 3 + + + 4 + + +

G|-------------9---------------8---|-------------7-------------------|
D|---------9---------------8-------|---------7---------------7---9---|
A|-----7---------------6-----------|-----5---------------------------|
E|---------------------------------|---------------------------------|
   1 + + + 2 + + + 3 + + + 4 + + +   1 + + + 2 + + + 3 + + + 4 + + +

[Verse 2] "When you're near me ..."
G|---------------------------------|---------------------------------|
D|/10----------9-------------------|---------------------------------|
A|---------------------------------|---------------------------------| (x7)
E|-------------------------7\------|-3-----------5-----------3/------|
   1 + + + 2 + + + 3 + + + 4 + + +   1 + + + 2 + + + 3 + + + 4 + + +

G|---------------------------------|---------------------------------|
D|/10----------9-------------------|---------------------------------|
A|---------------------------------|---------------------------------|
E|-------------------------7\------|-3-----------5---------------1---|
   1 + + + 2 + + + 3 + + + 4 + + +   1 + + + 2 + + + 3 + + + 4 + + +

[Pre-chorus 2] "I used to stand high like a pine ..."
G|-------------3.--3.--1-h-3-------|---------------------------------|
D|---------------------------------|-------------3.--3.--1-h-3-------|
A|-1-------------------------------|---------------------------------| (x2)
E|---------------------------------|-1-------------------------------|
   1 + + + 2 + + + 3 + + + 4 + + +   1 + + + 2 + + + 3 + + + 4 + + +

G|-------------3.--3.--1-h-3-------|---------------------------------|
D|---------------------------------|-------------3.--3---------------|
A|-1-------------------------------|-----------------------------3---|
E|---------------------------------|-1-------------------------------|
   1 + + + 2 + + + 3 + + + 4 + + +   1 + + + 2 + + + 3 + + + 4 + + +

[Chorus 1] "Now I'm feeling like a jelly fish ..."
G|---------------------------------|---------------------------------|
D|-3-------------------------------|-3-----------------------3/------|
A|-----------------------------3---|---------------------------------|
E|---------------------------------|---------------------------------|
   1 + + + 2 + + + 3 + + + 4 + + +   1 + + + 2 + + + 3 + + + 4 + + +

G|---------------------------------|---------------------------------|
D|-10------------------------------|-10----------------------10\-----|
A|---------------------------------|---------------------------------|
E|---------------------------------|---------------------------------|
   1 + + + 2 + + + 3 + + + 4 + + +   1 + + + 2 + + + 3 + + + 4 + + +

G|-------------7---------------7---|-------------8---------------8---|
D|---------7---------------7-------|---------8---------------8-------|
A|-----5---------------5-----------|-----6---------------6-----------|
E|---------------------------------|---------------------------------|
   1 + + + 2 + + + 3 + + + 4 + + +   1 + + + 2 + + + 3 + + + 4 + + +

G|-------------9---------------8---|-------------7-------------------|
D|---------9---------------8-------|---------7-----------------------|
A|-----7---------------6-----------|-----5---------------------------|
E|---------------------------------|---------------------------------|
   1 + + + 2 + + + 3 + + + 4 + + +   1 + + + 2 + + + 3 + + + 4 + + +

[Bridge] "I used to be an ice man ..."
G|---------------------------------|---------------------------------|
D|---------2-------2---------------|---------2-------2---------------|
A|---------------------4---2---4---|---------------------4---2---4---|
E|-2-------------------------------|-2-------------------------------|
   1 + + + 2 + + + 3 + + + 4 + + +   1 + + + 2 + + + 3 + + + 4 + + +

G|---------------------------------|---------------------------------|
D|---------3-------3---------------|---------3-------3---------------|
A|---------------------5---3---5---|---------------------5---3---5---|
E|-3-------------------------------|-3-------------------------------|
   1 + + + 2 + + + 3 + + + 4 + + +   1 + + + 2 + + + 3 + + + 4 + + +

G|---------------------------------|---------------------------------|
D|---------2-------2---------------|---------2-------2---------------|
A|---------------------4---2---4---|---------------------4---2---4---|
E|-2-------------------------------|-2-------------------------------|
   1 + + + 2 + + + 3 + + + 4 + + +   1 + + + 2 + + + 3 + + + 4 + + +

G|---------------------------------|---------------------------------|
D|---------3-------3---------------|---------5-------5-h-7-------7/--|
A|---------------------5---3---5---|---------------------------------|
E|-3-------------------------------|-5-------------------------------|
   1 + + + 2 + + + 3 + + + 4 + + +   1 + + + 2 + + + 3 + + + 4 + + +

G|---------------------------------|---------------------------------|
D|-12----------11------------------|-9-----------7-------------------|
A|---------------------------------|---------------------------------|
E|---------------------------------|---------------------------------|
   1 + + + 2 + + + 3 + + + 4 + + +   1 + + + 2 + + + 3 + + + 4 + + +

G|---------------------------------|---------------------------------|
D|---------------------------------|---------------------------------|
A|-10----------9-----------7/------|-12----------------------12/-----|
E|---------------------------------|---------------------------------|
   1 + + + 2 + + + 3 + + + 4 + + +   1 + + + 2 + + + 3 + + + 4 + + +

G|---------------------------------|---------------------------------|
D|---------------------------------|---------------------------------|
A|-21----------19------------------|-17----------16------------------|
E|---------------------------------|---------------------------------|
   1 + + + 2 + + + 3 + + + 4 + + +   1 + + + 2 + + + 3 + + + 4 + + +

G|---------------------------------|---------------------------------|
D|---------------------------------|---------------------------------|
A|-14----------12----------10------|-9---------------9\--------------|
E|---------------------------------|---------------------------------|
   1 + + + 2 + + + 3 + + + 4 + + +   1 + + + 2 + + + 3 + + + 4 + + +

[Solo]
G|---------------------------------|---------------------------------|
D|---------------------------------|---------------------------------|
A|---------------------------------|---------------------------------|
E|-8---0---8---10----------0---0---|-3---0---3---5-----------0---0---|
   1 + + + 2 + + + 3 + + + 4 + + +   1 + + + 2 + + + 3 + + + 4 + + +

G|---------------------------------|---------------------------------|
D|---------------------------------|---------------------------------|
A|---------------------------------|---------------------------------|
E|-8---0---8---10------------------|-3---0---3---5---------------0---|
   1 + + + 2 + + + 3 + + + 4 + + +   1 + + + 2 + + + 3 + + + 4 + + +

G|---------------------------------|---------------------------------|
D|---------------------------------|---------------------------------|
A|---------------------------------|---------------------------------|
E|-8---0---8---10----------0---0---|-3---0---3---5-----------0---0---|
   1 + + + 2 + + + 3 + + + 4 + + +   1 + + + 2 + + + 3 + + + 4 + + +

G|---------------------------------|---------------------------------|
D|---------------------------------|---------------------------------|
A|---------------------------------|---------------------------------|
E|-8---0---8---10------------------|-3---0---3-------4-------4-------|
   1 + + + 2 + + + 3 + + + 4 + + +   1 + + + 2 + + + 3 + + + 4 + + +

[Verse 3] "When you're near me ..."
G|---------------------------------|---------------------------------|
D|-------------10------------------|---------------------------------|
A|-4-------------------------------|---------------------------------|
E|-------------------------8\------|-4-----------6-----------4/------|
   1 + + + 2 + + + 3 + + + 4 + + +   1 + + + 2 + + + 3 + + + 4 + + +

G|---------------------------------|---------------------------------|
D|/11----------10------------------|---------------------------------|
A|---------------------------------|---------------------------------| (x7)
E|-------------------------8\------|-4-----------6-----------4/------|
   1 + + + 2 + + + 3 + + + 4 + + +   1 + + + 2 + + + 3 + + + 4 + + +

G|---------------------------------|---------------------------------|
D|-11--10--11--10------------------|-11--10--11--10------------------|
A|-----------------13--11--13--11--|-----------------13--11--13--11--| Repeat and fade
E|---------------------------------|---------------------------------|
   1 + + + 2 + + + 3 + + + 4 + + +   1 + + + 2 + + + 3 + + + 4 + + +


*****************

| / Slide up
| \ Slide down
| h Hammer-on
| . Staccato (End note)

*****************

            
            
Suggest correction
Creating personal tab
Creating personal tab
You can edit any tab online and save it as your Personal.

You can edit, replace or remove any tab part or add personal notes – all changes will be seen only by you.

Personal tabs can be accessed anytime from any device, even offline.
Learn more »
Give kudos to tab author, rate the tab!
1 2 3 4 5
comments
print report bad tab
guest
You may want to rate the tab now too:
select rating
Wanna post a correction for this tab? Suggest correction