Oops, an error
Loading. Please wait.

Cuanto Te Amo chords

92 views 1 this week
no commentswrite comment
1 2 3 4 5
3 more votes to show rating
add to favorites
×
Save as Personal and add changes to this tab that will be seen only by you. Learn more ›
×
You can save this tab as Personal to edit and correct it or add notes. All changes will be seen only by you. Learn more »
launch autoscroll
font size
0
reset
transpose
0
reset
simplify chords
display chords
guitar tuner
edit
Autoscroll
slow
fast
+/-
esc
set tempo
stop
Strumming
There is no strumming pattern for this song yet. and get +5 IQ
D                              D+7
Vengo a decirte que agradecido estoy
G+7
Pues trasformaste todo mi corazón
A6 A9  LA6  LA9         LA9   D
Cuanto te a?mo  Cri?sto, cuanto te a?mo

D                          D+7
Señor yo te amo y tengo que cantar
G+7
Porque en tus manos siento seguridad
A6 A9 LA6  LA9          LA9  D    LA
Cuanto te a?mo  Cri?sto, cuanto te a?mo

Coro:            Bm                 F#m
Quiero abrigarme bajo tus alas
G            D
Y abitar en tus moradas
G  A    F#  Bm          G - A
A la sombra de tu majestad

Bm           F#m
Alzo mi vida, alzo mi voz
G           D
Alzo mis manos hoy al cielo
G    A F#  Bm, Bm2, SIm3            G - A
Porque grande es tu fidelidad.

D
Vengo a decirte??? (La misma secuencia)
D
Señor yo te amo??? (La misma secuencia)       La

Coro:                Bm             F#m
//Quiero abrigarme bajo tus alas   (La misma secuencia)
Y abitar en tus moradas
A A sombra de tu majestad     Sol - La
Alzo mi vida, alzo mi voz
Alzo mis manos hoy al cielo
Porque grande es tu fidelidad  [Bis]  Sol - La

D
Vengo a decirte??? (La misma secuencia)
D
Señor yo te amo??? (La misma secuencia)
A6 A9 LA6  LA9          LA9  D
// Cuanto te a?mo  Cri?sto, cuanto te a...mo (Bis 3)


D+7                        G+7
E  ------2-------          E  ---2------------
B  ------2-------          B  -------3--------
G ------2-------          G  -----------4---
D  --------------          D  ----------------
A  --------------          A  ----------------
E  --------------          E  -------3--------

A6                          A9
E  -----2---------          E  ----------------
B  -----2---------          B  ----------------
G -----2---------          G -----2-----------
D  -----2---------          D  -----3-----------
A  --------------           A  ----------------
E  --------------           E  ----------------

Bm2                          Bm3
E  ---2------------          E  ----2------------
B  ---2---3--------          B  ----2---3--------
G ---2---2--------          G ----2------------
D  ---2-------4----          D  ----2------------
A  ---2------------          A  ----2------------
E  ---2------------          E  ----2------------

            
            
Suggest correction
Creating personal tab
Creating personal tab
You can edit any tab online and save it as your Personal.

You can edit, replace or remove any tab part or add personal notes – all changes will be seen only by you.

Personal tabs can be accessed anytime from any device, even offline.
Learn more »
Give kudos to tab author, rate the tab!
1 2 3 4 5
comments
print report bad tab
guest
Wanna post a correction for this tab? Suggest correction