Oops, an error
Loading. Please wait.

Queremos A Cristo Celebrar tab

87 views 1 this week
no commentswrite comment
1 2 3 4 5
3 more votes to show rating
add to favorites
×
Save as Personal and add changes to this tab that will be seen only by you. Learn more ›
×
You can save this tab as Personal to edit and correct it or add notes. All changes will be seen only by you. Learn more »
launch autoscroll
font size
0
reset
how to read this tab
guitar tuner
edit
Autoscroll
slow
fast
+/-
esc
set tempo
stop
Intro: este es el Intro de esta canción esta buenísima espero la saquen

B--------12--10~~~¡-8--10--12--10--8-----¡
e--10--8----------¡----------------------¡

G-----------------¡
B--------12--9~~/3¡
e--10--8----------¡

Esta Intro se hace dos veces.-

G            D          Em
//Queremos a Cristo celebrad
              C         D       G
Por todo lo que en su amor nos da
               D           Em
Como una bandera al frente va
            C      D      G
Nos abre camino al marchar//
=Coro=
   G         D          Em
//Queremos, queremos, queremos
            C          D      G
Queremos A Jesucristo celebrar//

G-----------------¡----------------------¡
B--------12--10~~~¡-8--10--12--10--8-----¡
e--10--8----------¡----------------------¡

G-----------------¡
B--------12--9~~/3¡
e--10--8----------¡

      D             Em
Paso a paso avancemos
        D       Em
Y así mismo venceremos
        D            Em
La oración es nuestra arma
                        C           D           G
Y a las murallas harán  caer, caer, caer, caer ya
aqui va el solo  casi igual al intro
G-----------------¡------¡
B--------12--10~~~¡-8h12-¡
e--10--8----------¡------¡

G----------------¡
B-8--10--12-13---¡
e----------------¡

G-----------------¡
B--12-10-8--------¡
e------------10---¡
=Coro=
   G         D          Em
//Queremos, queremos, queremos
            C          D      G
Queremos A Jesucristo celebrar//

Después de este coro viene este solo que es casi idéntico al Intro
G-----------------¡------¡
B--------12--10~~~¡-8h12-¡
e--10--8----------¡------¡

G----------------¡
B-8--10--12-13---¡
e----------------¡

G-----------------¡
B--12-10-8--------¡
e------------10---¡
aquí el solo se hace dos veces

=Coro=

Aquí la bataca hace un solo y luego se vuelve a cantar el coro
y después viene el solo de la guitarra dos veces
y termina la Cancion es para la gloria de Dios
Espero que sea de bendición
este es mi 2da transcripción
alguna duda escríbanme a denil_musico@
ha i un saludo a la iglesia bethania haya en momostenango.
totonicapan Guatemala.-
a un saludo a mi mami sophi y a la banda de la
iglesia y a mi pastor jose hernandez
Suggest correction
Creating personal tab
Creating personal tab
You can edit any tab online and save it as your Personal.

You can edit, replace or remove any tab part or add personal notes – all changes will be seen only by you.

Personal tabs can be accessed anytime from any device, even offline.
Learn more »
Give kudos to tab author, rate the tab!
1 2 3 4 5
comments
print report bad tab
guest
Wanna post a correction for this tab? Suggest correction