Oops, an error
Loading. Please wait.

Conga Y Timbal bass

by Yaguaru
471 views 3 this week
no commentswrite comment
1 2 3 4 5
3 more votes to show rating
add to favorites
×
Save as Personal and add changes to this tab that will be seen only by you. Learn more ›
×
You can save this tab as Personal to edit and correct it or add notes. All changes will be seen only by you. Learn more »
launch autoscroll
font size
0
reset
guitar tuner
edit
Autoscroll
slow
fast
+/-
esc
set tempo
stop
Veo que esta canción tiene varias peticiones. No sé que quieran porque
en realidad está muuuuuy fácil. En toda la rola sólo lleva Am y G de
acordes y se escucha claramente donde cambian.
Les voy a pasar dos partes de bajo, que sobresalen.


INTRO (Piano y bajo al unísono [octavados])

                     0:15
     H        Q    E  E     E  E  E  E  E  E  E  E
G||----------------------|--------------------------|
D||----------------------|--7--7--------6--6--------|
A||-------------------7--|-----------7-----------7--|
E||----------------------|--------------------------|


  E  E  E  E  E  E  E  E     E  Q    E  E  E  E  E
--------------------------|-------------------------|
--5--5--------4--4--------|--7-------5--------5-----|
-----------7-----------7--|----------------7--------|
--------------------------|-------------------------|


  Q    Q    H
---------------------||
--7------------------||
---------------------||
---------------------||


INTRO (Trombón, bajo y piano al unísono)

                  0:34
     H        Q    E  E     E  Q    E  Q    E  E
G||----------------------|------------------------|
D||----------------------|--7--7----5--7-------7--|
A||----------------7--7--|------------------------|
E||----------------------|------------------------|


  E  E  E  E  Q    E  E     E  Q    E  Q    Q
-----5-------------------|-----------------------|
-------------------------|--7--7----5--7---------|
-----------7-------7--7--|-----------------------|
-------------------------|-----------------------|
Suggest correction
Creating personal tab
Creating personal tab
You can edit any tab online and save it as your Personal.

You can edit, replace or remove any tab part or add personal notes – all changes will be seen only by you.

Personal tabs can be accessed anytime from any device, even offline.
Learn more »
Give kudos to tab author, rate the tab!
1 2 3 4 5
comments
print report bad tab
guest
Wanna post a correction for this tab? Suggest correction