Oops, an error
Loading. Please wait.

The Pink Panther Tab

86,258 views 12 this week
4 commentsread comments
1 2 3 4 5
x 5
add to favorites
launch autoscroll
font size
0
reset
how to read this tab
guitar tuner
Autoscroll
slow
fast
+/-
esc
set tempo
stop
Help us to improve Ultimate-Guitar.com Take our survey!
×
Author
--hi-this-is-my-version-for-the-song-the-pink-panther--
-=-=-=-\/\/\/\/\/=-=-=-=-=-
\/\/\/\/FxP.Co.Il\/\/\/\/\/
=-=-=-=\/\/\/\/\/-=-=-=-=-=

-=-=-=-\/\/\/\/\/=-=-=-=-=-
\/\/\/\/YyKsHkDrK\/\/\/\/\/
=-=-=-=\/\/\/\/\/-=-=-=-=-=

e|-----------------------------------------------------------|
B|-----------------------------------------------------------|
G|-----------------------------------------------------------| 
D|----------4h5-----4h5-5p4--5--4\3-3\2-0--------------------|
A|--4h5-6h7-----6h7---------7-------------0h2----------------|
E|-----------------------------------------------------------|


e|-----------------------------------------------------------|
B|-----------------------------------------------------------|
G|-----------------------------------------------------------| 
D|----------4h5-----4h5-5p4--5--8\7-3\2-0--------------------|
A|--4h5-6h7-----6h7---------7-------------0h2----------------|
E|-----------------------------------------------------------|


e|--------0--------------------------------------------------|
B|---------3-0-----------------------------------------------|
G|-------------2-0-----3\2-3\2-3\2-3\2-0---------------------| 
D|-----------------0---------------------0h2-----------------|
A|--4567-----------------------------------------------------|
E|-----------------------------------------------------------|


| \  slide down
| h  hammer-on
| p  pull-off
Suggest correction
comments
print report bad tab
4 comments total. Showing first comments.
0 reply
Rithikrocks 10 Jan 31, 2013 11:58 AM

Its gud but try explaining whats hamering etc.. Anyway its awesome.

0 reply
musicalmagician 10 Mar 11, 2013 04:01 PM

for the last part i think it sounds better like this:

e-----0-----------------------------------
b-------3--0-------------------------------
g-------------2--0-------------------------
d------------------2----------------------
a----------------------------------------
e----------------------------------------

0 reply
musicalmagician 10 Mar 11, 2013 04:02 PM

for the last part i think it sounds better like this:

e-----0-----------------------------------
b-------3--0-------------------------------
g-------------2--0-------------------------
d------------------2----------------------
a----------------------------------------
e----------------------------------------
great job as far as the rest goes though!

guest
You may want to rate the tab now too:
select rating
Wanna post a correction for this tab? Suggest correction