Oops, an error
Loading. Please wait.

Ressaca tab

91 views 3 this week
no commentswrite comment
1 2 3 4 5
3 more votes to show rating
add to favorites
×
Save as Personal and add changes to this tab that will be seen only by you. Learn more ›
×
You can save this tab as Personal to edit and correct it or add notes. All changes will be seen only by you. Learn more »
launch autoscroll
font size
0
reset
how to read this tab
guitar tuner
edit
Autoscroll
slow
fast
+/-
esc
set tempo
stop
Author
e|------------0--------0--------0--------0--------0--------0--------0--------0----------|
B|----------4--------4--------1--------1--------4--------4--------1--------1------------|
G|----------4--------4--------1--------1--------4--------4--------1--------1------------|
D|--------5--------5--------2--------2--------5--------5--------2--------2--------------|
A|--------------------------------------------------------------------------------------|
E|------0--------0--------1--------1--------0--------0--------1--------1----------------|

e|------------0---------0-------0--------0--------0---------0-------0--------0----------|
B|----------4---------4-------3--------3--------4---------4-------3--------3------------|
G|----------4---------4-------3--------3--------4---------4-------3--------3------------|
D|--------------------------------------------------------------------------------------|
A|--------4---------4-------3--------3--------4---------4-------3--------3--------------|
E|------0---------0-------0--------0--------0---------0-------0--------0----------------|

e|--------------------------------------------------------------------------------------|
B|-------------0--------0--------0-------0--------0--------0--------0-------0-----------|
G|-----------6--------6--------2-------2--------6--------6--------2-------2-------------|
D|-----------5--------5--------1-------1--------5--------5--------1-------1-------------|
A|---------6--------6--------4-------4--------6--------6--------4-------3---------------|
E|-------0--------0--------0-------0--------0--------0--------0-------0-----------------|

e|-------7-----7--7-----7--7-----7-----7-----------7-----7--7-----7--10--8--10--8--7----|
B|-----------0--------0----8--10---10--8--7--8--10-----0--------0----10---------------0-|
G|---------0--------0------8-----------8-------------0--------0------9---------------5--|
D|----------------0--------9-----------9--------------------0---------------------------|
A|-------------------------------------------------------------------0-------------6----|
E|-----0-------------------7-----------7-----------0------------------------------------|

e|-------5--7--8--7-----3--0-----0---3--2--0--2-----3--2--0--0--------------------------|
B|--------------------0--------0-----1------------0-------------------0--------0--------|
G|------------------0--------0------------------2-------------------0--------0----------|
D|-------------------------0------------------------------------------------------------|
A|----------------------------------3---------2-------------------2--------2------------|
E|----------------0---------------------------------------------3--------3--------------|

e|--------------------------------------------------------------------------------------|
B|-------------0--------0--------0--------0--------0--------0---------------------------|
G|-----------2--------2--------3--------3--------5--------5-----------------------------|
D|-----------1--------1--------2--------2--------4--------4-----------------------------|
A|---------3--------3--------4--------4--------6--------6-------------------------------|
E|-------2--------2--------3--------3--------5--------5---------------------------------|

e|-------7-----7--7-----7--7-----7-----7-----------7-----7--7-----7--10--8--10--8--7----|
B|-----------0--------0----8--10---10--8--7--8--10-----0--------0----10---------------0-|
G|---------0--------0------8-----------8-------------0--------0------9---------------5--|
D|----------------0--------9-----------9--------------------0---------------------------|
A|-------------------------------------------------------------------0-------------6----|
E|-----0-------------------7-----------7-----------0------------------------------------|

e|-------5--7--8--7-----3--0-----0---3--2--0--2-----3--2--0--0--------------------------|
B|--------------------0--------0-----1------------0-------------------0--------0--------|
G|------------------0--------0------------------2-------------------0--------0----------|
D|-------------------------0------------------------------------------------------------|
A|----------------------------------3---------2-------------------2-------2-------------|
E|----------------0---------------------------------------------3--------3--------------|

e|--------------------------------------------------------------------------------------|
B|-------------0--------0--------0--------0--------0--------0---------------------------|
G|-----------2--------2--------3--------3--------5--------5-----------------------------|
D|-----------1--------1--------2--------2--------4--------4-----------------------------|
A|---------3--------3--------4--------4--------6--------6-------------------------------|
E|-------2--------2--------3--------3--------5--------5---------------------------------|

e|-------0--8-----8--8-----8--8--7-6-7-10-9-8-7-8---5-8-5---------8-7-6-7-10-9-8-7------|
B|--------------5--------5----5----5---------------5------5-----------5-----------------|
G|------------5--------5------5----5--------------5---------5---5-----5-----------------|
D|-------------------7--------6----6--------------------------7---6---6-----------------|
A|----------0-----------------------------------0---------------------------------------|
E|--------------------------------------------------------------------------------------|

e|-------12------8----------8-7-6-7-8-7-7-----3-0-----0--5-3-5-3-2----2-0---------------|
B|----------10-----10-------0---0-----------0-------0----5---5---2-5-4------------------|
G|-------------9------9--9--5---5---------0-------0------3---3---2----------------------|
D|----------------------------------------------0---------------------------------------|
A|--------0----0--------0---6---6------------------------3---3---2----------------------|
E|-------------------------------------0--------------------------------0---------------|

e|------------0--------0--------0--------0--------0--------0--------0--------0----------|
B|----------4--------4--------1--------1--------4--------4--------1--------1------------|
G|----------4--------4--------1--------1--------4--------4--------1--------1------------|
D|--------5--------5--------2--------2--------5--------5--------2--------2--------------|
A|--------------------------------------------------------------------------------------|
E|---------------0--------1--------1--------0--------0--------1--------1----------------|

e|-------7-----7--7-----7--7-----7-----7-----------7-----7--7-----7--10--8--10--8--7----|
B|-----------0--------0----8--10---10--8--7--8--10-----0--------0----10---------------0-|
G|---------0--------0------8-----------8-------------0--------0------9---------------5--|
D|----------------0--------9-----------9--------------------0---------------------------|
A|-------------------------------------------------------------------0-------------6----|
E|-----0-------------------7-----------7-----------0------------------------------------|

e|-------5--7--8--7-----3--0-----0---3--2--0--2-----3--2--0--0--------------------------|
B|--------------------0--------0-----1------------0-------------------0--------0--------|
G|------------------0--------0------------------2-------------------0--------0----------|
D|-------------------------0------------------------------------------------------------|
A|----------------------------------3---------2-------------------2--------2------------|
E|----------------0---------------------------------------------3--------3--------------|

e|--------------------------------------------------------------------------------------|
B|-------------0--------0--------0--------0--------0--------0---------------------------|
G|-----------2--------2--------3--------3--------5--------5-----------------------------|
D|-----------1--------1--------2--------2--------4--------4-----------------------------|
A|---------3--------3--------4--------4--------6--------6-------------------------------|
E|-------2--------2--------3--------3--------5--------5---------------------------------|

e|-------7-----7--7-----7--7-----7-----7-----------7-----7--7-----7--10--8--10--8--7----|
B|-----------0--------0----8--10---10--8--7--8--10-----0--------0----10---------------0-|
G|---------0--------0------8-----------8-------------0--------0------9---------------5--|
D|----------------0--------9-----------9--------------------0---------------------------|
A|-------------------------------------------------------------------0-------------6----|
E|-----0-------------------7-----------7-----------0------------------------------------|

e|-------5--7--8--7-----3--0-----0---3--2--0--2-----3--2--0--0--------------------------|
B|--------------------0--------0-----1------------0-------------------0--------0--------|
G|------------------0--------0------------------2-------------------0--------0----------|
D|-------------------------0------------------------------------------------------------|
A|----------------------------------3---------2-------------------2--------2------------|
E|----------------0---------------------------------------------3--------3--------------|

e|--------------------------------------------------------------------------------------|
B|-------------0--------0--------0--------0--------0--------0---------------------------|
G|-----------2--------2--------3--------3--------5--------5-----------------------------|
D|-----------1--------1--------2--------2--------4--------4-----------------------------|
A|---------3--------3--------4--------4--------6--------6-------------------------------|
E|-------2--------2--------3--------3--------5--------5---------------------------------|

e|-------0---8-----10--7------5--7-----8--5-----4-5-----7--3----------------------------|
B|-----------5-5-5-----7-7-7-----7-7-7----5-5-5---2-2-2----1-1-1--0---------------------|
G|-----------5-5-5-----5-5-5-----7-7-7----4-4-4---2-2-2----3-3-3------------------------|
D|---------------------0-----0---6----6---3---------------------------------------------|
A|-----------0----0-----------------------4----4-----------3----------------------------|
E|------------------------------------------------2----2--------------------------------|

e|------------0--------0--------0--------0--------0--------0--------0--------0----------|
B|----------4--------4--------1--------1--------4--------4--------1--------1------------|
G|----------4--------4--------1--------1--------4--------4--------1--------1------------|
D|--------5--------5--------2--------2--------5--------5--------2--------2--------------|
A|--------------------------------------------------------------------------------------|
E|------0--------0--------1--------1--------0--------0--------1--------1----------------|

e|------------0---------0-------0--------0--------0---------0-------0--------0----------|
B|----------4---------4-------3--------3--------4---------4-------3--------3------------|
G|----------4---------4-------3--------3--------4---------4-------3--------3------------|
D|--------------------------------------------------------------------------------------|
A|--------4---------4-------3--------3--------4---------4-------3--------3--------------|
E|------0---------0-------0--------0--------0---------0-------0--------0----------------|

e|--------------------------------------------------------------------------------------|
B|-------------0--------0--------0-------0--------0--------0--------0-------0-----------|
G|-----------6--------6--------2-------2--------6--------6--------2-------2-------------|
D|-----------5--------5--------1-------1--------5--------5--------1-------1-------------|
A|---------6--------6--------4-------4--------6--------6--------4-------3---------------|
E|-------0--------0--------0-------0--------0--------0--------0-------0-----------------|

e|-------7-----7--7-----7--7-----7-----7-----------7-----7--7-----7-7-------------------|
B|-----------0--------0----8--10---10--8--7--8--10-----0--------0-------0-10-8-----0----|
G|---------0--------0------8-----------8-------------0--------0-------0----------5------|
D|----------------0--------9-----------9--------------------0---------------------------|
A|-----------------------------------------------------------------------------7--------|
E|-----0-------------------7-----------7-----------0----------------8--------8----------|

e|------0-------7------7--12------------------------------------------------------------|
B|------------8------8------------------------------------------------------------------|
G|----------9------9--------------------------------------------------------------------|
D|--------9-----------------------------------------------------------------------------|
A|--------------------------------------------------------------------------------------|
E|------0-----------------0-------------------------------------------------------------|

            
            
Suggest correction
Creating personal tab
Creating personal tab
You can edit any tab online and save it as your Personal.

You can edit, replace or remove any tab part or add personal notes – all changes will be seen only by you.

Personal tabs can be accessed anytime from any device, even offline.
Learn more »
Give kudos to tab author, rate the tab!
1 2 3 4 5
comments
print report bad tab
guest
You may want to rate the tab now too:
select rating
Wanna post a correction for this tab? Suggest correction