Oops, an error
Loading. Please wait.

One More Time One More Chance Tab

version 1
version 1

Whole song

Interactive

69,050 views 192 this week
2 commentsread comments
1 2 3 4 5
excellent!
x 23
add to favorites
launch autoscroll
font size
0
reset
how to read this tab
guitar tuner
Autoscroll
slow
fast
+/-
esc
set tempo
stop
Help us to improve Ultimate-Guitar.com Take our survey!
×
Contributor
Difficulty
Volfor 75
novice
-------------------------------------------------------------------------------
              One more time, One more chance - Yamazaki Masayoshi
-------------------------------------------------------------------------------
Tuning: E A D G B E

Q=60
4/4


[Intro]

e|-7----7-----|-7-----7----|-7-----9----|-7-----7----|
B|-5----5-----|-6-----6----|-7-----7----|-6-----6----|
G|-6----------|-6--6-------|-7--7-------|-7--7-----7-| 
D|-7----------|------------|------------|------------|
A|-0--------0-|-0--------0-|-0--------0-|-0----------|
E|------------|------------|------------|------------|(x2)


[Verse]

e|-------7----|-------7----|-9-----9----|-7-----7----|
B|-5-----5----|-6-----6----|-7-----7----|-6-----6----|
G|----6-------|----6-------|-7--7-------|-7--7-------|
D|------------|------------|-0--------0-|-0--------0-| 
A|-0--------0-|-0--------0-|------------|------------|
E|------------|------------|------------|------------|(x2)
  Koreijou nani o ushinaeba kokoro wa yurusareru no
  Dore hodo no itami naraba mou ichido kimi ni aeru

e|-------4----|-------2----|-------2----|-------1----|
B|-5-----5----|-2-----2----|-3-----3----|-1----------|
G|----6-------|-2----------|-4----------|-2--2-------|
D|----6-------|----4-----4-|----4-------|------------| 
A|-4----------|------------|-2--------0-|------------|
E|----------4-|-2----------|------------|-1--------1-|(x2)

  One more time kisetsu yo utsurowanaide
  One more time fuzake atta jikan yo

(Repeat Verse 1 except final measure,then play this)   

e|-1~~--------|
B|-1~~--------|     
G|-2~~--------|
D|-3~~--------|
A|-3~~--------|
E|-1~~--------|

  Kuichigau toki wa itsumo boku ga saki ni oreta ne
  Wagamama na seikaku ga naosara itoshiku saseta
  One more chance kioku ni ashi o torarete
  One more chance tsugi no basho o erabenai
                                       

[Chorus]

e|-0----------|------------|------------|-------2----|
B|-2-----2----|-2-----2----|-3-----3----|-2----------|
G|-2-----2----|-1-----1----|-4-----4----|-3----------|
D|----2-----2-|----2-----2-|----5-----5-|----4-------|
A|-0----------|-0----------|------------|------------|
E|------------|------------|-3----------|-2--------2-|
  Itsudemo sagashite iru yo dokka ni kimi no sugata o

e|-------2----|-------2----|-------2----|-------0----|
B|-3----------|------------|------------|-------0----|
G|----4-------|-3----------|----2-------|-------1----|
D|------------|----4-------|------------|----2-----2-|
A|-2--------2-|-2--------2-|-2--------0-|------------|
E|------------|------------|------------|-0----------|
  Mukai no HOOMU rojiura no mado
  Konna toko ni iru hazu mo nai no ni 


(Repeat Chorus, in the end play this)   

e|-0~~--------|
B|-0~~--------|
G|-1~~--------|
D|-2~~--------|
A|-2~~--------|
E|-0~~--------|

  Negai ga moshimo kanau nara ima sugu kimi no moto e
  Dekinai koto wa mou nanimo nai
  Subete kakete dakishimete miseru yo


[Bridge]

e|------------|------------|-0----------|-0~---------|
B|-3-----3----|-3-----3----|-2-----2----|-2~----2----|
G|-4-----4----|-4-----4----|-------2----|-2~----2----|
D|------------|------------|----2-------|-2~---------|
A|----5-------|----5-------|-0--------0-|-0~-------0-|
E|-3--------3-|-3--------5-|------------|------------|

e|------------|------------|
B|-3-----3----|-3~~--------|
G|-4-----4----|-4~~--------|
D|------------|-5~~--------|
A|----5-------|------------|
E|-3--------3-|-3~~--------|


[Verse]

  Sabishisa magirasu dake nara
  Dare demo ii hazu na no ni
  Hoshi ga ochisou na yoru dakara
  Jibun o itsuwarenai
  One more time kisetsu yo utsurowanaide
  One more time fuzake atta jikan yo


[Chorus]

  Itsudemo sagashite iru yo dokka ni kimi no sugata o
  Kousaten demo yume no naka demo
  Konna toko ni iru hazu mo nai no ni
  Kiseki ga moshimo okoru nara ima sugu kimi ni misetai
  Atarashii asa korekara no boku
  Ienakatta suki to iu kotoba mo


[Bridge]

e|-------1----|-------3----|------------|------------|
B|-------1----|-------0----|-1-----0----|-1-----1----|
G|------------|----0-----0-|-2-----0----|-2-----2----|
D|----3-----3-|------------|----2-----0-|----2-----2-|
A|------------|------------|-0----------|------------|
E|-1----------|-3----------|-------3----|-2----------|
  Natsu no omoide ga mawaru...

e|-------1----|-------3----|-0~~---0~~--|----0-------|
B|-------1----|-------0----|-0~~---0~~--|-------0----|
G|------------|----0-----0-|-2~~---2~~--|----------1-|
D|----3-----3-|------------|-2~~---2~~--|------------|
A|------------|------------|-2~~---2~~--|------------|
E|-1----------|-3----------|-0~~---0~~--|-0----------|
  ...fui ni kieta kodou


[Chorus](x3)

(with repeats)

  Itsudemo sagashite iru yo dokka ni kimi no sugata o
  Akegata no machi sakuragichou de
  Konna toko ni kuru hazu mo nai no ni
  Negai ga moshimo kanau nara ima sugu kimi no moto e
  Dekinai koto wa mou nanimo nai
  Subete kakete dakishimete miseru yo

  Itsudemo sagashite iru yo dokka ni kimi no kakera o
  Tabisaki no mise shinbun no sumi
  Konna toko ni aru hazu mo nai no ni
  Kiseki ga moshimo okoru nara ima sugu kimi ni misetai
  Atarashii asa kore kara no boku
  Ienakatta suki to iu kotoba mo

  Itsu demo sagashite shimau dokka ni kimi no egao o
  Kyuukou machi no fumikiri atari
  Konna toko ni iru hazu mo nai no ni
  Inochi ga kurikaesu naraba nandomo kimi no moto e
  Hoshii mono nado mou nanimo nai
  Kimi no hoka ni taisetsu na mono nado


[Bridge]

e|------------|------------|-0----------|-0~---------|
B|-3-----3----|-3-----3----|-2-----2----|-2~----2----|
G|-4-----4----|-4-----4----|-------2----|-2~----2----|
D|------------|------------|----2-------|-2~---------|
A|----5-------|----5-------|-0--------0-|-0~-------0-|
E|-3--------3-|-3--------5-|------------|------------|

e|------------|------------|
B|-3-----3----|-3~~--------|
G|-4-----4----|-4~~--------|
D|------------|-5~~--------|
A|----5-------|------------|
E|-3--------3-|-3~~--------|


[Outro]

e|-------7----|-------7----|-7-----9----|-7----------|-0~~-|
B|-5----------|-6----------|-7----------|-6-----6----|-0~~-|
G|----6-----0-|----6-----0-|----7-----7-|-7--7-----0-|-2~~-|
D|------------|------------|-0----------|-0----------|-2~~-|
A|-0----------|-0----------|------------|------------|-0~~-|
E|------------|------------|------------|------------|-----|

************************************

| ~  Vibrato

************************************
Suggest correction new What's this?
You can suggest a correction to this tab. Community and Mods will review your correction and vote to approve or reject it.
comments
print report bad tab
2 comments total. show 1 bad comment
+2 reply
astrogenov 56 wrote on June 2 2015, 06:50 pm

It's gonna be hard to time everything with the lyrics, but excellent work on an otherwise tricky song.

guest
You may want to rate the tab now too:
select rating
Please do not post tabs as comments. Select "correction" instead!