Oops, an error
Loading. Please wait.

Si Supieras tab

17 views 1 this week
no commentswrite comment
1 2 3 4 5
3 more votes to show rating
add to favorites
×
Save as Personal and add changes to this tab that will be seen only by you. Learn more ›
×
You can save this tab as Personal to edit and correct it or add notes. All changes will be seen only by you. Learn more »
launch autoscroll
font size
0
reset
how to read this tab
guitar tuner
edit
Autoscroll
slow
fast
+/-
esc
set tempo
stop
Zta zong d yankenpunk! m bazilo ni bn la zkuxe! z d ptm!!!!!!!
kn wena letra km 100!! ezta zong ez para ti mi amor! (carla) x
la mini mexita q kreo q akabamoz d tener! jaja pro ze q en un
rato noz arreglamoz! .. te amo peke! x100! =)  ->*15-12-07*<-
UN PEKENIO DETAYE ZOBRE LA KANZION!
El fondo q akompaña el intro ez un juego entre 2 kuerdaz
- 4ta y 5ta para E5 y C#5
- 5ta y 6ta para A5 y B5
q tmb ze repite akabando la zong! ez too!
-------------------------------------------------------------
Intro: E5 - C#5 - A5 - B5 (x2)

 E5                       C#5
e/-------------------------/-------------------------/-
B/-------------------------/-------------------------/-
G/-------------------------/-------------------------/-
D/-2-4-6-6--6-4--6-7-6-4-2-/-2-4-6-6--6-4--6-7-6-4-2-/-
A/-------------------------/-------------------------/-
E/-------------------------/-------------------------/-

 A5                        B5
-/-------------------------/-------------------------/
-/-------------------------/-------------------------/
-/-------------------------/-------------------------/
-/-4-6-7-7--7-6--7-9-7-6-4-/-4-6-7-7--7-6--7-9-7-6-4-/
-/-------------------------/-------------------------/
-/-------------------------/-------------------------/ .....(x2)

      E5
Zi zupieraz kuanto tiempo pazo
      C#5
una adolezenzia de zolo mirarnoz
      A5
zi zupieraz lo ke yo trate
       B5
no fue fazil lo intente!

     E5
zi zupieraz q todoz eztoz añoz
     C#5
la pazaba penzando en ti
       A5
zi eztabaz kon alguien zi eraz feliz!
      B5
o zi tambien penzabaz en mi...


G#5       A5              B5
todo a kambiado, ke noz pazo!
G#5                 A5                 B5
kambiare a tu realidad, algun dia lo hare
                     E5
y zi eztaz ahi..ezperame.


 E5                       C#5
e/-------------------------/-------------------------/-
B/-------------------------/-------------------------/-
G/-------------------------/-------------------------/-
D/-2-4-6-6--6-4--6-7-6-4-2-/-2-4-6-6--6-4--6-7-6-4-2-/-
A/-------------------------/-------------------------/-
E/-------------------------/-------------------------/-

 A5                        B5
-/-------------------------/-------------------------/
-/-------------------------/-------------------------/
-/-------------------------/-------------------------/
-/-4-6-7-7--7-6--7-9-7-6-4-/-4-6-7-7--7-6--7-9-7-6-4-/
-/-------------------------/-------------------------/
-/-------------------------/-------------------------/ .....(x2)


     E5
Zi zupieraz ke fui un idiota,
     C#5
zi kizieraz darme un lugar,
      A5
no zeria por el tiempo perdido
      B5
zeria xq noz falto vivir.

     E5
zi zupieraz ke todoz mis problemaz,
      C#5
miz aneloz miedoz i miz metaz
       A5
laz kiziera kompartir
       B5
a miz viejoz amigoz y a ti...


G#5       A5              B5
todo a kambiado, ke noz pazo!
G#5                 A5                 B5
kambiare a tu realidad, algun dia lo hare
                     E5
y zi eztaz ahi..ezperame.

C#5 - A5 - B5

   E5         C#5         A5         B5
e/------------------------------------------/
B/------------------------------------------/
G/------------------------------------------/
D/-9--9-9-7-6--9--9-9-7-6----9-9-7-6--------/
A/------------------------7----------7--7/9-/
E/------------------------------------------/


G#5 - A5 - B5 (x2)


   E5                 C#5   A5     B5
e/---------------------------------------/-
B/---------------------------------------/-
G/---------------------------------------/-
D/-6-4-2--6-4-2-9-7-6-(x2)--7-6-4--4-2-1-/-
A/---------------------------------------/-
E/---------------------------------------/-

   E5                  C#5                   A5     B5
-/--------------------------------------------------------/
-/--------------------------------------------------------/
-/--------------------------------------------------------/
-/-6-4-2--6-4-2-9-7-6--7-6-4-2--6-4-2-9-7-6--7-6-4--4-2-1-/
-/--------------------------------------------------------/
-/--------------------------------------------------------/

G#5               A5
escribiré una historia,
          B5
lo dibujare, lo enfrentare
          E5
y te esperare.


E5 - C#5 - A5 - B5 (x3) - E5...

            
            
Suggest correction
Creating personal tab
Creating personal tab
You can edit any tab online and save it as your Personal.

You can edit, replace or remove any tab part or add personal notes – all changes will be seen only by you.

Personal tabs can be accessed anytime from any device, even offline.
Learn more »
Give kudos to tab author, rate the tab!
1 2 3 4 5
comments
print report bad tab
guest
Wanna post a correction for this tab? Suggest correction