Oops, an error
Loading. Please wait.

Aux Arbres Citoyens Chords

4,967 views 6 this week
1 commentread comment
1 2 3 4 5
please rate
add to favorites
launch autoscroll
font size
0
reset
transpose
0
reset
display chords
guitar tuner
Autoscroll
slow
fast
+/-
esc
set tempo
stop
Help us to improve Ultimate-Guitar.com Take our survey!
×
Author
Difficulty
novice
Those are the tabs to aux arbres citoyens (do not mix it up with the french anthem ;) )

The whole song goes like this:

e:|---------------------------------------------|
b:|---------------------------------------------|
g:|--10-10-10-10-10-10-10-10--8-8-8-8--6-6-6-6--|     repeat it x times
d:|--10-10-10-10-10-10-10-10--8-8-8-8--6-6-6-6--|
a:|--8--8--8--8--8--8--8--8---6-6-6-6--4-4-4-4--|
e:|---------------------------------------------|


   =   Fm    E    Cis

and the bridge goes like this:


e:|---------------------------|
b:|---------------------------|         =   E   Fm
g:|----8-8-8-8--10-10-10-10---|     
d:|----8-8-8-8--10-10-10-10---|
a:|----6-6-6-6--8--8--8--8----|
e:|---------------------------|


e:|---------------------------|
b:|---------------------------|
g:|----8-8-8-8--6-6-6-6-------|        =   E   Cis
d:|----8-8-8-8--6-6-6-6-------|
a:|----6-6-6-6--4-4-4-4-------|
e:|---------------------------|
Suggest correction
Give kudos to tab author, rate the tab!
1 2 3 4 5
comments
print report bad tab
1 comment total.
0 reply
ddu693 10 wrote on September 7 2015, 02:13 pm

sorry but its more Em D C during all the song

guest
You may want to rate the tab now too:
select rating
Please do not post tabs as comments. Select "correction" instead!