Oops, an error
Loading. Please wait.

Senti Tab

version 2
version 2

Whole song

by Yano
19,462 views 36 this week
no commentswrite comment
1 2 3 4 5
x 4
add to favorites
launch autoscroll
font size
0
reset
how to read this tab
guitar tuner
×
Best way to learn
"Senti"
Autoscroll
slow
fast
+/-
esc
set tempo
stop
Song:Senti
Artist:Yano
Date Tabbed:July,2006

Gtr.Legends:
~ - LET IT RING
h - HAMMER-ON
p - PULL-OFF

Gtr.Tuning:Standard(Normal)

[Intro and Verse]
e|--------------0---------------0---|
B|-------0----------------3---------| Repeat
G|-----2------2---------2-----2-----| Many Times
D|---2------2---------0-----0-------|
A|-0----------------0---------------|
E|----------------------------------|

[Chorus]
e|--------000000---|
B|-000000-333333---| Repeat
G|-222222-222222---| Many Times
D|-222222-000000---|
A|-000000----------|
E|-----------------|

[Bridge](Gtr.Solo)
Gtr.1:
e|--------000000---|
B|-000000-333333---| Repeat
G|-222222-222222---| 6x
D|-222222-000000---|
A|-000000----------|
E|-----------------|

Gtr.2:
e|-----------------------------------------------------|
B|-----2~------3-2---------3-2-3-3h5--5-3-2-3--3-2-3---|
G|-3-5-----3-5-----2~--3-5-----------------------------| Then
D|-----------------------------------------------------|
A|-----------------------------------------------------|
E|-----------------------------------------------------|

e|----------------------------------------------5---------------|
B|-----2--2-3---------3-2-3-3h5~------3-2-3-3h5---5-3-2-2h3p2---|
G|-3-5--------2~--3-5-------------3-5---------------------------|
D|--------------------------------------------------------------|
A|--------------------------------------------------------------|
E|--------------------------------------------------------------|

Inaliw kita...       Ayaw mong mag-isa...
e|---------2~--      ----------------|
B|-0~--3-0-3~-- 3x   -0~--33333333---|
G|-2~--2-0-2~-- Then -2~--22222222---|
D|-2~--0-0-----      -2~-------------|
A|-0~----------      -0~-------------|
E|-------------      ----------------|

Ok lang sa akin...
e|--------000000---|
B|-000000-333333---| Repeat
G|-222222-222222---| Many Times
D|-222222-000000---|
A|-000000----------|
E|-----------------|

Repeat Chorus:
Mahal ka ba niya talaga...
Gtr.1:Play Chorus
Gtr.2:
e|-99999--777777---|
B|-99999--777777---|
G|-77777--777777---| 
D|-----------------|
A|-----------------|
E|-----------------|

Ako,mahal kita...         Mahal na mahal....
e|-----0-0-2~--2-0-----      -----0000000---|
B|-0~--3-0-3~--3-0-0~-- 4x   -0-0-3333333---|
G|-2~--2-0-2~--2-0-2~-- Then -2-0-2222222---|
D|-2~--0-0-----0-0-2~--      -2-0-0000000---|
A|-0~--------------0~--      -0-------------|
E|---------------------      ---------------|

Outro Chorus:Play Chorus
Tatandaan mo,ang saya saya natin ohh....
Sa zoo...

Last Chord:
e|------|
B|-0~---|
G|-2~---|
D|-2~---|
A|-0~---|
E|------|

   I would like to greet first offcourse my ONLY ONLY ONE,then;my relatives,my
friends on Montalban(Brgy.Balite Espiritu Subd.),My traitor friends in our school
NSDAPS San Mateo Rizal,Cocklosas,Cocklisay.Cocktabijan,Cockpistrano,Cockyatano,Cockruz,
Franciscock,Picock,Fuckmittan,Redick,Simbulbulan,Frondosuso,Bayagin,Titesta,Aldick,and many
moore,our band club(COMBO-RATS),Project X,To all my txt mates and other companie,Red Porn Records,
My friends in YM and Friendster,and most of all,hi to God..
Suggest correction
comments
print report bad tab
guest
You may want to rate the tab now too:
select rating
Wanna post a correction for this tab? Suggest correction