Oops, an error
Loading. Please wait.

Remember Me Tab

version 1
version 1

Whole song

529 views 1 this week
no commentswrite comment
1 2 3 4 5
please rate
add to favorites
launch autoscroll
font size
0
reset
how to read this tab
guitar tuner
Tab Pro tools
  • play this tab
  • loop segment
  • change instrument
  • show fretboard
  • metronome
×
Best way to learn
"Remember Me"
Autoscroll
slow
fast
+/-
esc
set tempo
stop
Contributor
Difficulty
Tuning
intermediate
C G C F A D
                       ***MattRevenger's Tab***

Band: Yashin
Song: Remember Me
Album: Put Your Hands Where I Can See Them
Tuning: Drop C


d-----0------0--0--0-----0----00-|
a--5--4--5---7--9--7--5--4-5--22-|
f--------------------------------|
C--------------------------------|
G--------------------------------|
C--------------------------------|


d--------------------------------|
a--------------------------------|
f--15-16-15-13-1113-11-811--8--6-|
C--------------------------------|
G--13-14-13-11-9-11--9-6-9--6--4-|
C--------------------------------|

d---------------------------------|
a---------------------------------|
f--15-16-15-13-1113-11-811--8--11-|
C---------------------------------|
G--13-14-13-11-9-11--9-6-9--6--9--|
C---------------------------------|


d------------------------|
a------------------------|
f------------------------|
C------2---4---6---4-----|
G------2---4---6---4-----|
C------2---4---6---4-----|


d-----------------------------|
a---2/4/2---------2/4/2-4/5/4-|
f---------4-3-----------------|
C-------------4---------------|
G-----------------------------|
C-----------------------------|


d-------------------------|
a-------4-44--------------|
f-------4-44----6-666-----|
C--2---------4---------6--|
G--2---------4---------6--|
C--2---------4---------6--|


d------------------------------|
a---2/4/2---------2/4/2-4/5/4--|
f---------4-3------------------|
C-------------4----------------|
G------------------------------|
C------------------------------|


d-----------------------------|
a-----------------------------|
f--3-4p3---6p3h4p3h6p3h4p3----|
C--------------------------6--|
G-----------------------------|
C-----------------------------|

d------------------------|
a--------------4/5/4/2---|
f--4-3--4--3-----------4-|
C------------------------|
G------------------------|
C------------------------|


d-----------|
a-----------|
f-----------|
C--2--1---4-|
G--2--1---4-|
C--2--1---4-|



d-----------------------------|
a-----------------------------|
f-----------------------------|
C--6--89------------------2-4-|
G--6--89------------------2-4-|
C--6--89--11111113131314/-2-4-|


d------------------------------------|
a------------------------------------|
f------------------------------------|
C---6--4--6--4--6------8--4/6/8-9p8--|
G---6--4--6--4--6--------------------|
C---6--4--6--4--6--------------------|



d-----------------------------------|
a-----------------------------------|
f---11--9--13--16-------------------|
C-----------------------------------|
G---9---7--11--14-------------------|
C-----------------------------------|

d--------------------------------------------|
a--------------------------------------------|
f------------------------------------------9-|
C---6--4--6--4--6------8--4/6/8-9p8-----2----|
G---6--4--6--4--6-----------------------2--7-|
C---6--4--6--4--6-----------------------2----|
                                                 ...........
d------------------------------------------------------------|
a------------------------------------------------------------|
f---11--9--13--16--------------------------------------------|
C---------------------------------------6----2---------------|
G---9---7--11--14-----------------------6----2---------------|
C---------------------------------------6----2----4444444444-|


d--------------------------------|
a--------------------------------|
f--------------------------------|
C--------4-------8------8--8/9-8-|
G-------------------9/11-11------|
C----/4/6-6-4-6/9-9--------------|


d------------------------|
a-----------4------------|
f----4------4------------|
C----2------2------/9----|
G----2------2------------|
C----2------2------------|
comments
We did not receive enough feedback on this tab! Please rate:
print report bad tab
1 2 3 4 5
I want to post or [tab]
guest
You may want to rate the tab now too:
select rating
Please do not post tabs as comments. Select "correction" instead!