Oops, an error
Loading. Please wait.

Fairy Tail - Home Tab

1,128 views 1 this week
no commentswrite comment
1 2 3 4 5
2 more votes to show rating
add to favorites
launch autoscroll
font size
0
reset
how to read this tab
guitar tuner
Autoscroll
slow
fast
+/-
esc
set tempo
stop
Help us to improve Ultimate-Guitar.com Take our survey!
×
Author
Difficulty
novice
Second tab, figured out by ear! I can't figure out the background notes, so here is only the most hearable part! :)
I'm a beginner, so bear with me if there are mistakes!


Tuning: Standard

h  - Hammer-on
~  - vibrato


e|--7-8-8h10--12--10--7-5-3h5p3--------3-------------3--3h5-3-7---------5-7-3--|
B|------------------------------5--3-5---3---3---5---------------5-5--3--------|
G|-----------------------------------------------------------------------------|
D|-----------------------------------------------------------------------------|
A|-----------------------------------------------------------------------------|
E|-----------------------------------------------------------------------------|

e|-----------------------------------------------------------------------------|
B|-----------------------------------------------------------------------------|
G|--4-5-7--9--7--4-2-0--------0-------------0---2-0-4---------2-4-0------------|
D|---------------------2--0-2---0---0---2--------------2-2--0------------------|
A|-----------------------------------------------------------------------------|
E|-----------------------------------------------------------------------------|

e|--7-/12~--10--7-5-3--------3-5-7~---12-10-12-15--10-12-10~----5-7---3~-------|
B|-------------------5-3--5-----------------------------------------3----------|
G|-----------------------------------------------------------------------------|
D|-----------------------------------------------------------------------------|
A|-----------------------------------------------------------------------------|
E|-----------------------------------------------------------------------------|

e|--7-8--10-12-10--7-5-3--------3-5-7~---12-10-12-15--10-12-10~----5-7---3~----|
B|-----------------------5-3--5----------------------------------------3-------|
G|-----------------------------------------------------------------------------|
D|-----------------------------------------------------------------------------|
A|-----------------------------------------------------------------------------|
E|-----------------------------------------------------------------------------|
Suggest correction
Give kudos to tab author, rate the tab!
1 2 3 4 5
comments
print report bad tab
guest
You may want to rate the tab now too:
select rating
Wanna post a correction for this tab? Suggest correction