Oops, an error
Loading. Please wait.

Fairy Tail tab

version 2
version 2

Whole song

Interactive

121,820 views 372 this week
no commentswrite comment
1 2 3 4 5
x 11
add to favorites
×
Save as Personal and add changes to this tab that will be seen only by you. Learn more ›
×
You can save this tab as Personal to edit and correct it or add notes. All changes will be seen only by you. Learn more »
launch autoscroll
font size
0
reset
how to read this tab
guitar tuner
edit
Autoscroll
slow
fast
+/-
esc
set tempo
stop
Author
Difficulty
intermediate
------------------------------------------------------------------------------
                             Fairy Tail Main Theme - Yasuharu Takanashi
-------------------------------------------------------------------------------
Tabbed by:ME!
E-mail:Don't want any comments unless you really wanna
 say something you feel i need to hear then you can go
 ahead and try to look me up

Tuning: Whole step down
This is the first time I've ever done anything like this,
 but i believe it should be decent and if not well look
me up and send me something saying I'm wrong and I'll
make an attempt to fix it.  This is both the slower
version of the main theme and the regular speed version,
 I wouldn't to throw in the metal version with it, but
decided not to in the end. hope this is good cuz
 everything i find just sounds wrong to me and this is
how i hear it. Enjoy.


[Intro]

e|-----7----7-5------------|------7---10-7---5-----------|
B|5----------------8-7-5-7-|-5-------------8-----8-7-5-7-|
G|--------------7----------|-------------------7---------|
D|-------------------------|-----------------------------|
A|-------------------------|-----------------------------|
E|-------------------------|-----------------------------|


[Main Riff 1]

e|12--14-12---------------------12-----|
B|----------15--12------12--15------15-|
G|------------------14-----------------|
D|-------------------------------------|
A|-------------------------------------|
E|-------------------------------------|


[Main Riff 2]
  
e|12--14-12--------------------15-14-|
B|----------15--12------12--15-------|
G|------------------14---------------|
D|-----------------------------------|
A|-----------------------------------|
E|-----------------------------------|

Play Main Riff 1 again
  
  
[Main Riff 1]

e|12--14-12---------------------12-----|
B|----------15--12------12--15------15-|
G|------------------14-----------------|
D|-------------------------------------|
A|-------------------------------------|
E|-------------------------------------|   


[Main Riff 3]
  
e|15--14-12-14--12-----------12----15-14-12-|
B|------------------15-12-15----15----------|
G|------------------------------------------|
D|------------------------------------------|
A|------------------------------------------|
E|------------------------------------------|


[Secondary Riff 1]

e|----------------7------------7-------------|
B|----7-8---7--------10-8-10-----10--8-7-5-7-|
G|9-----------9-7----------------------------|
D|-------------------------------------------|
A|-------------------------------------------|
E|-------------------------------------------|
                                                                   
[Secondary Riff 2]

e|--------------------10-7---------7-------------------|
B|----7-8---7--------------10-8-10---10-8-7---7h8p7----|
G|9-----------9-7---------------------------9--------7-|
D|----------------9------------------------------------|
A|-----------------------------------------------------|
E|-----------------------------------------------------|

Sorry if this is confusing, but after this play:
   Secondary Riff 1
   Secondary Riff 2
   Main Riff 1,2,1,3 x2
   
   
[Secondary Riff 1]

e|----------------7------------7-------------|
B|----7-8---7--------10-8-10-----10--8-7-5-7-|
G|9-----------9-7----------------------------|
D|-------------------------------------------|
A|-------------------------------------------|
E|-------------------------------------------|
       
           
[Secondary Riff 2]

e|--------------------10-7---------7-------------------|
B|----7-8---7--------------10-8-10---10-8-7---7h8p7----|
G|9-----------9-7---------------------------9--------7-|
D|----------------9------------------------------------|
A|-----------------------------------------------------|
E|-----------------------------------------------------|   
   
   
[Main Riff 1]

e|12--14-12---------------------12-----|
B|----------15--12------12--15------15-|
G|------------------14-----------------|
D|-------------------------------------|
A|-------------------------------------|
E|-------------------------------------|


[Main Riff 2]
  
e|12--14-12--------------------15-14-|
B|----------15--12------12--15-------|
G|------------------14---------------|
D|-----------------------------------|
A|-----------------------------------|
E|-----------------------------------|   


[Main Riff 1]

e|12--14-12---------------------12-----|
B|----------15--12------12--15------15-|
G|------------------14-----------------|
D|-------------------------------------|
A|-------------------------------------|
E|-------------------------------------|


[Main Riff 3]
  
e|15--14-12-14--12-----------12----15-14-12-|
B|------------------15-12-15----15----------|
G|------------------------------------------|
D|------------------------------------------|
A|------------------------------------------|
E|------------------------------------------|
   
   
   Then it gets faster and it becomes more
of like 8th and 16th notes

   Play Main Riff 1,2,1,3 x3
   
   
[Main Riff 1]

e||-12--14-12---------------------12-----|
B||-----------15--12------12--15------15-|
G||-------------------14-----------------|
D||--------------------------------------|
A||--------------------------------------|
E||--------------------------------------|

[Main Riff 2]
  
e|12--14-12--------------------15-14-|
B|----------15--12------12--15-------|
G|------------------14---------------|
D|-----------------------------------|
A|-----------------------------------|
E|-----------------------------------|   

[Main Riff 1]

e|12--14-12---------------------12-----|
B|----------15--12------12--15------15-|
G|------------------14-----------------|
D|-------------------------------------|
A|-------------------------------------|
E|-------------------------------------|

[Main Riff 3]
  
e|15--14-12-14--12-----------12----15-14-12-||
B|------------------15-12-15----15----------||
G|------------------------------------------||  x3
D|------------------------------------------||
A|------------------------------------------||
E|------------------------------------------||
      

Pre-Verse/Bridge kind of goes like this,
but its got another instrument playing over
it so it doesnt really matter how you play
it as long as you stick with these notes
 

[Bridge] 
 
e|------------------------|
B|------------------------|
G|------------------------|
D|2-2---2-2-2-2---2-2-2-2-|x2
A|2-2-..2-2-2-2-..2-2-2-2-|
E|0-0-000-0-0-0-000-0-0-0-|


[Verse]

e|---------------------------------------------------|
B|---------------------------------------------------|
G|------------------7-7-7-7--------------------------|
D|2-2-2-2--5-5-5-5--5-5-5-5------5-----5-----7-----7-|x2
A|2-2-2-2--5-5-5-5--5-5-5-5--.-.-5-.-.-5-.-.-7-.-.-7-|
E|0-0-0-0--3-3-3-3-----------3-3-3-3-3-3-5-5-5-5-5-5-|


Random Lick NOTE: This is also fairly slow
  
e|----7---5---3--2--0--2------7--10--7---5---3-2-----|
B|5---------3-------------5------------8---3-----5-3-|
G|---------------------------------------------------|
D|---------------------------------------------------|
A|---------------------------------------------------|
E|---------------------------------------------------|


Play Main Riff1,2,1,3
  
  
[Main Riff 1]

e|12--14-12---------------------12-----|
B|----------15--12------12--15------15-|
G|------------------14-----------------|
D|-------------------------------------|
A|-------------------------------------|
E|-------------------------------------|


[Main Riff 2]
  
e|12--14-12--------------------15-14-|
B|----------15--12------12--15-------|
G|------------------14---------------|
D|-----------------------------------|
A|-----------------------------------|
E|-----------------------------------|   


[Main Riff 1]

e|12--14-12---------------------12-----|
B|----------15--12------12--15------15-|
G|------------------14-----------------|
D|-------------------------------------|
A|-------------------------------------|
E|-------------------------------------|


[Main Riff 3]
  
e|15--14-12-14--12-----------12----15-14-12-|
B|------------------15-12-15----15----------|
G|------------------------------------------|
D|------------------------------------------|
A|------------------------------------------|
E|------------------------------------------|  
  
  
[Random Lick 2]

e|-----------------|-----19--17-15-17--19--17---15-14------14-|
B|17--19-20--19-17-|-15--------------------------------17-----|
G|-----------------|------------------------------------------|
D|-----------------|------------------------------------------|
A|-----------------|------------------------------------------|
E|-----------------|------------------------------------------|

e|-----------------------22--19--17-15-17--19-17--15-14--12--14-15-14-----|
B|17--19-20--19-17-15--------------------------------------------------15-|
G|--------------------16--------------------------------------------------|
D|------------------------------------------------------------------------|
A|------------------------------------------------------------------------|
E|------------------------------------------------------------------------|

Play Main Riff 1,2,1,3 x3


[Main Riff 1]

e||-12--14-12---------------------12-----|
B||-----------15--12------12--15------15-|
G||-------------------14-----------------|
D||--------------------------------------|
A||--------------------------------------|
E||--------------------------------------|

[Main Riff 2]
  
e|12--14-12--------------------15-14-|
B|----------15--12------12--15-------|
G|------------------14---------------|
D|-----------------------------------|
A|-----------------------------------|
E|-----------------------------------|   

[Main Riff 1]

e|12--14-12---------------------12-----|
B|----------15--12------12--15------15-|
G|------------------14-----------------|
D|-------------------------------------|
A|-------------------------------------|
E|-------------------------------------|

[Main Riff 3]
  
e|15--14-12-14--12-----------12----15-14-12-||
B|------------------15-12-15----15----------||
G|------------------------------------------||  x3
D|------------------------------------------||
A|------------------------------------------||
E|------------------------------------------||  
  
  
Play Main Riff 1,2
  

[Main Riff 1]

e|-12--14-12---------------------12-----|
B|-----------15--12------12--15------15-|
G|-------------------14-----------------|
D|--------------------------------------|
A|--------------------------------------|
E|--------------------------------------|

[Main Riff 2]
  
e|12--14-12--------------------15-14-|
B|----------15--12------12--15-------|
G|------------------14---------------|
D|-----------------------------------|
A|-----------------------------------|
E|-----------------------------------|  


[Outro]
  
e|--------------------------------------------------------------------------|
B|12~~~~~-------------------------------------------------------------------|
G|--------------------------------------------------------------------------|
D|----------------2---------------------------------------------------------|
A|----------------2---------------------------------------------------------|
E|----------------0---------------------------------------------------------|


Then if you know the metal version you can
 go right into after that power chord at the
 end. Hope this helps you did the best I
could to get it right. Oh and it was tuned
 a whole step down cuz everything in standard
 just didn't sound right.



************************************

| h  Hammer-on
| p  Pull-off
| ~  Vibrato
| .. Missed notes

************************************
Suggest correction
Creating personal tab
Creating personal tab
You can edit any tab online and save it as your Personal.

You can edit, replace or remove any tab part or add personal notes – all changes will be seen only by you.

Personal tabs can be accessed anytime from any device, even offline.
Learn more »
comments
print report bad tab
guest
You may want to rate the tab now too:
select rating
Wanna post a correction for this tab? Suggest correction