Oops, an error
Loading. Please wait.

Samidare Early Summer Rain Tab

version 2
version 2

Whole song

  • This version is standard tuning with capo in the 5... Show more
82 views 1 this week
no commentswrite comment
1 2 3 4 5
3 more votes to show rating
add to favorites
launch autoscroll
font size
0
reset
how to read this tab
guitar tuner
Autoscroll
slow
fast
+/-
esc
set tempo
stop
Help us to improve Ultimate-Guitar.com Take our survey!
×
Author
Difficulty
Capo
intermediate
5th fret
About this tab version
This version is standard tuning with capo in the 5th fret. This is a modified version of lonlonjp's tab. The chorus is a bit different as well as the C part of the song. Was this info helpful? Yes No
[Intro]

e|---------------------------------------------------------------------------|
B|--------0---3-0-------0-------1-------0---3-0-------0--0---1---------------|
G|------0---2---------0-----0---2-----0---2---------0----------2-----2-------|
D|----2-------------2-----2-----2---2-------------2--------0-------3---------|
A|--0-------------0-------------0---------------0----------------3-----------|
E|-------------------------------------------------------3-----1-------------|



[Verse]

e|--0----0-----3--0------0----------------------0------------------------------|
B|----3----3---0-------------3----1-0-1-3-----------0-1------------------------|
G|--------------------0----2---2--2-----------0-------------2------------------|
D|----3------0------2----0--------0---------0-------0-----3--------------------|
A|----------------3-----------------------2-------2-----3----------------------|
E|---------3----------------------------0-------0-----1------------------------|

e|--0---5-3-----1--0-----0-------1-0-1--3---------5---0----------------------|
B|----3---------3--3---------3---1-0-----------------------------------------|
G|------------0--------0---------2-0----------0-----5------------------------|
D|----3---0----------2-----0-3-0------------0--------------------------------|
A|-----------------3-----0----------------2----------------------------------|
E|--------------------------------------0------------------------------------|

[Chorus]            2x         

e|--7-8-7---0---3--5--------0--------0-1-0---------------0-------------------|
B|--5-------0---0------3--------0----3-------0---1---3---3-------------------|
G|--5-----7---0------2---2----0---0--2-----2-----------0---0-----------------|
D|-----------------------------------0---------2---2-------------------------|
A|--0-----------------------3----------------3-------2-----------------------|
E|----------0------1---------------------------------------------------------|
     1st goal               2nd goal
e|--3---0-3---||--3----------------------------------------------------------|
B|--0---0-----||--0---0------------------------------------------------------|
G|------------||------0------------------------------------------------------|
D|----0-------||-------------------------------------------------------------|
A|------------||----2--------------------------------------------------------|
E|------0-----||--0----------------------------------------------------------|

[C Part]

e|---------------------------------------------------------------------------|
B|--------0---3-0-------0-----------0---3-0--------3---0---------------------|
G|--2---0---2-----2---0-----0-----0---2---------0----------------------------|
D|----2-------------2-----2-----2-------------2------2-----------------------|
A|--0-------------0-----------0-------------0--------------------------------|
E|------------------------------- -------------------------------------------|
     2x                1st goal
e|----0-3-------0--|--5-3-0-------3-5-0-----------0--------------------------|
B|--3-3-0-----3----|------0-----------------3-1-1----------------------------|
G|--0-----0---0----|--5-----2-0---0-----0-------0---2------------------------|
D|--0-0-0---0------|------2-----2-----0---0-2--------------------------------|
A|------------2----|------------------------0---0-----3-2-0------------------|
E|--3--------------|---------------------------------------------------------|
    2nd goal
e|--5-7-5-------3-5-0-----------0-------0------------------------------------|
B|----------0-------------3-1-1-----1----------------------------------------|
G|--5-----5-----0-----0-------0---2-0----------------------------------------|
D|------------7-----0---0-2-----------2--------------------------------------|
A|--0---------------------0---0----------------------------------------------|
E|----------------------------------0----------------------------------------|

[Chorus]            2x         

e|--7-8-7---0---3--5--------0--------0-1-0---------------0-------------------|
B|--5-------0---0------3--------0----3-------0---1---3---3-------------------|
G|--5-----7---0------2---2----0---0--2-----2-----------0---0-----------------|
D|-----------------------------------0---------2---2-------------------------|
A|--0-----------------------3----------------3-------2-----------------------|
E|----------0------1---------------------------------------------------------|
     1st goal               2nd goal
e|--3---0-3---||--3----------------------------------------------------------|
B|--0---0-----||--0---0------------------------------------------------------|
G|------------||------0------------------------------------------------------|
D|----0-------||-------------------------------------------------------------|
A|------------||----2--------------------------------------------------------|
E|------0-----||--0----------------------------------------------------------|


[Outro]

e|---------------------------------------------------------------------------|
B|--------0---3-0-------0-------1-------0---3-0-------0-----------0---3-0----|
G|--2---0---2-----2---0-----0---2-----0---2---------0-----0-----0---2--------|
D|----2-------------2-----2-----2---2-------------2-----2-----2--------------|
A|--0-------------0-------------0---------------0-----------0----------------|
E|---------------------------------------------------------------------------|


e|---------------------------------------------------------------------------|
B|--------0------------------------------------------------------------------|
G|--2---0-----0-----2--------------------------------------------------------|
D|----2-----2-----2----------------------------------------------------------|
A|--0-----------0------------------------------------------------------------|
E|---------------------------------------------------------------------------|

Suggest correction
Give kudos to tab author, rate the tab!
1 2 3 4 5
comments
print report bad tab
guest
You may want to rate the tab now too:
select rating
Wanna post a correction for this tab? Suggest correction