Oops, an error
Loading. Please wait.

Her Sey Biter Tab

2,518 views 9 this week
no commentswrite comment
1 2 3 4 5
excellent!
x 2
add to favorites
launch autoscroll
font size
0
reset
how to read this tab
guitar tuner
Tab Pro tools
  • play this tab
  • loop segment
  • change instrument
  • show fretboard
  • metronome
Autoscroll
slow
fast
+/-
esc
set tempo
stop
Contributor
Difficulty
intermediate
 E|----2----------x-0-----------x------------x-------|
 B|----0----------4-4-----------5------------5-------|
 G|----1----------6-6-----------7------------7-------|   
 D|----2----------6-6-----------5------------7-------|
 A|----2----------x-x-----------7------------x-------|
 E|----0----------4-4-----------5------------5-------|
   E add9     C# sus2    D sus2sus4     D sus2

      (C# sus2 akorunu basarken ilk vurusta en alt tel basilmayacak.)


  Giris: E add9 / C# sus2 / D sus2sus4 / D sus2 
  
  ilk tekrari yaparken elektro gitar ile ayni akorlar sadece bir kere.
  
  0:11   /   0:13   /    0:16    /   0:18  
  Eadd9  /  C#sus2  /  Dsus2sus4 /  D sus2 


  0:20 

 E|------------------------------|
 B|----------9/7--5-----5--------|
 G|------------------6-----------|   
 D|------------------------------|
 A|------------------------------|
 E|------------------------------|


 0:22
 
   Benimle yasamak seni hasta ediyor
 E add9              C# sus2
   Her gun soyluyorsun
          D sus2sus4     D sus2
   Her sey eskisi gibi piril piril olsun istiyorsun
 E add9          C# sus2          D sus2sus4        D sus2
   Yorgun askimizin ayakta duracak hali yok
 E add9         C# sus2           D sus2sus4        D sus2
   Neler oluyor anlamıyorum ama bittigine hic suphe yok
   E add9                 C# sus2            D sus2sus4    D sus2
   

   Bir gun gelir herkes kendi yoluna gider
 C# sus2 D sus2sus4                D sus2      E (en alttaki tel yok)
   Her sey nasil basladiysa oyle biter                                    X2
 C# sus2        D sus2sus4      D sus2         E (en alttaki tel yok)

  E|-----------------------------------------------------------------------|
  B|-------------------------------12p10-----------------------------------|
  G|-------9-11b-9------9-9--11b-9--------12--9h11p9--9-9------------------|   
  D|--9p11----------------11------------------------11----11/7p5--7---5----|
  A|----------------------------------------------------------------7---7-7|
  E|-----------------------------------------------------------------------|
    
  E|-------12--14b-12--15b-15-12-----------|
  B|--12h14----------12-----------14p12----|
  G|---------------------------------------|   
  D|---------------------------------------|
  A|---------------------------------------|
  E|---------------------------------------|

 Benimle paylastigin gunler için
 Harcanmis zaman diyorsun
 Guzel olan anilari hatirlamak
 Artık cok zor diyorsun 

 Yorgun askimizin ayakta duracak hali yok
 Neler oluyor anlamıyorum ama bittigine hic suphe yok
 
 Bir gün gelir herkes kendi yoluna gider
 Her sey nasil basladiysa oyle biter

     Solo

 E|----12-------------------------------------------------------------|
 B|----12h14--12--12---------9----------------------------------------|
 G|--13---------13----12-----11h12p11p9-----9----9--------------------|   
 D|-------------------11h13--------------11------9h11--9--------------|
 A|------------------------------------------(11)--------11/9p7--7-7--|
 E|------------------------------------------------------------9------|

 E|----------------------------------------9---------9--------------------|
 B|-----------------------------------------9--12B----9-12-11b11p9---9----|
 G|----------------9-9--11b-9--9h11----11B-------------------------11-----|   
 D|------------9-11---11-----11-------------------------------------------|
 A|--9--7--9/11-----------------------------------------------------------|
 E|-----------------------------------------------------------------------|

 E|-------------------------12---14b-12--15B-15--12--------12-------------|
 B|-------------12-12--12-14-----------12----------12--15b---15p12--------|
 G|--11-9--11/13-----13-------------------------------------------14------|   
 D|------------------------------------------------------------------14---|
 A|-----------------------------------------------------------------------|
 E|-----------------------------------------------------------------------|

 E|-------------------------------------------------------------------|
 B|-------------------------------------------------------------------|
 G|----12-------------------------------------------12--12-14b--------|   
 D|----12h14--12---------------------------12--12h14--14--------------|
 A|(14)---------14/12p10--10-12---10--12/14--14-----------------------|
 E|---------------------12----------12--------------------------------|

 E|---17B--15--15b-----16-17-17-17-17-17-17-17p16---------------------------------|
 B|----------17------17--------------------------17-14-17-------------------------|
 G|------------------------------------------------------16/14p12-14--12----------|   
 D|------------------------------------------------------------------14--14-14----|
 A|-------------------------------------------------------------------------------|
 E|-------------------------------------------------------------------------------|

 E|--------------------------------------------------------|
 B|-----9-10-11-12-----------------------------------------|
 G|--11b-----------11b-11-9--9-11-9-11b-----11b--9--9-9----|   
 D|------------------------11---------------------11-------|
 A|--------------------------------------------------------|
 E|--------------------------------------------------------|

 E|--------------------------------------------------12-12-------|
 B|---------------------------------------------12-14-----14-----|
 G|----9------------------------9--9-11-9--11/13-----------------|   
 D|----9h11--9--------------9h11-11------------------------------|
 A|(11)--------11/9p7-7-9/11-------------------------------------|
 E|------------------9-------------------------------------------|

 E|--14b-12--------------------------------------------------------------|
 B|---------14b-12-------------------------------------------------------|
 G|----------------14b14p12---14--12-----------------------------9-------|   
 D|------------------------14---14--14------12---------------9-11-11-----|
 A|-------------------------------------------14-12/-----9/11------------|
 E|----------------------------------------------------------------------|


 Bir gun gelir herkes kendi yoluna gider 

 E|-------9-------------------12--12----12--12----12--12-----------------------|
 B|---------12----------------12--12----12--12----12--12-----------------------|
 G|---11B------11B-9-------11B-------11B-------11B---------11B-11p9--9---------|   
 D|----------------------------------------------------------------11--11-9h11-|
 A|----------------------------------------------------------------------------|
 E|----------------------------------------------------------------------------|         
 
 Her sey nasil basladiysa oyle biter

 E|-7------7--2---------------------------------------------------|
 B|-7h9p7--7--2h4p2-2------------4h5p4----------------------------|
 G|------8---------4-4-------4---4----6--4-4-4----4-4h6-----------|   
 D|-----------------------4/6-6-----------6------6----------------|
 A|---------------------------------------------------------------|
 E|---------------------------------------------------------------|

 Bir guuuuuun gelir herkes kendi yoluna gider

 E|-------0-----0-----0------0-------0-------0------------------------------|
 B|-------0-----0-----0------0-------0-------0------------------------------|
 G|---4h6---6/8---8/9-----11-----13------14-----14h16-14-13-14-13-----------|   
 D|---------------------------------------------------------------16-14-----|
 A|--------------------------------------------------------------------16---|
 E|-------------------------------------------------------------------------|

 Her sey nasil basladiysa oyle biter

 E|---------------4---4--7------12-12---12-------------------------------|
 B|---------------4h5-4--4------12-12---12---12------10-------10---------|
 G|------------4--4---4--4------------13-----11h13----9h11p9---9--9------|   
 D|------4--4h6-6-------------------------------------------11----9h11---|
 A|--4/6--6--------------------------------------------------------------|
 E|----------------------------------------------------------------------|

 E|----------------------------------------------------------16/14--14/12...|
 B|--13----------13------------15----------15-------------------------------|
 G|--12h14p12----12-12---------14h16p14----14-14-------14/16------14...-----|   
 D|-----------14----12h14---------------16----14h16-------------------------|
 A|-------------------------------------------------------------------------|
 E|-------------------------------------------------------------------------|

 ( / - slide | p - pull off | h - hammer on | b - yarım bend | B - tam bend )

       Kolay gelsin    cag.yild@gmail.com
comments
We did not receive enough feedback on this tab! Please rate:
print report bad tab
1 2 3 4 5
I want to post or [tab]
guest
You may want to rate the tab now too:
select rating
Please do not post tabs as comments. Select "correction" instead!