Oops, an error
Loading. Please wait.

Istanbula Ait Tab

660 views 1 this week
no commentswrite comment
1 2 3 4 5
please rate
add to favorites
launch autoscroll
font size
0
reset
how to read this tab
guitar tuner
Autoscroll
slow
fast
+/-
esc
set tempo
stop
Help us to improve Ultimate-Guitar.com Take our survey!
×
Contributor
Difficulty
intermediate
       Giris

e|-------------------------0-------0-----0-------5-------5------|
B|-----0---0---3-2h3p2-------0-------0-----0---5-------5--------|
G|-2/4---4---4---------4-2------/9-----9-------7---7---6--------|    X2
D|--------------------------------------------------------------|
A|--------------------------------------------------------------|
E|--------------------------------------------------------------|


   Uzak kalmayi denedim senden olmadi
e|-----0------------------------------2-2-2-|
B|------0-----------------------------3-3-3-|
G|-4-4---4----------------------------4-4-4-|    
D|------------------------------------------|
A|------------------------------------------|
E|------------------------------------------|

   Eksik olan bir seyler var hep yoklugunda
e|--2------2-------2------2------2----2----2|
B|--3------3-------3------3------3----3----3|
G|--4------4-------4------4------4----4----4|    
D|------------------------------------------|
A|------------------------------------------|
E|------------------------------------------|

     Cihangir sokaklari huzursuz insanlar
e|---0------------------0---------------------|
B|---3-------2-----3-2--3--------2----3-2-----|
G|---2-------2-----2-2--2--------2----2-2-----|    
D|---0-------2-----2-2--0--------2----2-2-----|
A|-----------0-----0-0-----------0----0-0-----|
E|--------------------------------------------|
 
      Artik hic atmayan bu kalbim 
e|---0-----------------------------0-0-0----x--|
B|---3-----------------------------3-3-3-2--x--|
G|---2-----------------------------2-2-2-2--x--|    
D|---0-----------------------------0-0-0-0--x--|
A|------------------------------------------x--|
E|------------------------------------------x--|

   Istanbul'a ait olmus             Istanbul'a ait olmus
e|----------------------0-0-0----x-----------------------|
B|--2--------3------2---3-3-3-2--x---2-------3------2----|
G|--2--------4------2---2-2-2-2--x---2-------4------2----|    
D|--2--------4------2---0-0-0-0--x---2-------4------2----|
A|--0--------2------0------------x---0-------2------0----|
E|-------------------------------x-----------------------|    



e|---------0---------------0-------0-----0-------5-------5------|
B|-----0---0---3-2h3p2-------0-------0-----0---5-------5--------|
G|-2/4---4---4---------4-2------/9-----9-------7---7---6--------|    X2
D|--------------------------------------------------------------|
A|--------------------------------------------------------------|
E|--------------------------------------------------------------|


   Disarda vahsi bir dunya evler huzursuz

   Arkadaslar hep sikintili dostluklar donmus

   Yasayan bir sey var burda hala bir butunun parcası olmusuz

   Biz artık yasamayan insanlar 

   Istanbul'a ait olduk Istanbul'a ait olduk


       Solo

e|-----7--7--7---------------10b-10--7------7h9p7-----7-------7-----------|
B|------------------------------------7-10b--------10--7--10b--10-7--10p7-|
G|---9b-9b-9b-9b-9p7---7-------------------------------------------9------|    
D|-------------------9----------------------------------------------------|
A|------------------------------------------------------------------------|
E|------------------------------------------------------------------------|

e|------7-----------------------------------------------------------------|
B|-----7--10-7------------------------------------------------------10-10-|
G|---9b--------9b9p7---9p7--7----------7-7-----------------7-7--9/11------|    
D|-------------------9-----9--9-7-9----7-7h9p7---7h9p7---/9---------------|
A|----------------------------------/9---------9--------------------------|
E|------------------------------------------------------------------------|

e|------12---12-----12---12---12---12---12---12---12----------------------|
B|---12b--12b----12b--12b--12b--12b--12b--12b--12b--12b12p10--10h12-------|
G|------------------------------------------------------------------------|    
D|------------------------------------------------------------------------|
A|------------------------------------------------------------------------|
E|------------------------------------------------------------------------|


   Uzak kalmayi denedim senden    olmadi
e|------------------------------------------|
B|----------------------10h12p10--9h10p9----|
G|--------------------------------------9---|    
D|------------------------------------------|
A|------------------------------------------|
E|------------------------------------------|

   Eksik olan bir seyler var hep yoklugunda

   Cihangir sokakları huzursuz insanlar

   Artık hic atmayan bu kalbim

   Istanbul'a ait olmus Istanbul'a ait olmus

e|----------------------12---12---12---12---12---12---12---12---12---12--|
B|------------10-10--12b--12b--12b--12b--12b--12b--12b--12b--12b--12b----|
G|------9-9h11-----------------------------------------------------------|    
D|---/11-----------------------------------------------------------------|
A|-----------------------------------------------------------------------|
E|-----------------------------------------------------------------------|

e|----------------------17---------|
B|---12b12p10--10-------17--17-----|
G|-----------11------/18----16h18--|    
D|---------------------------------|
A|---------------------------------|


  ( / - slide | p - pull off | h - hammer on | b - yarım bend | B - tam bend )

        Kolay gelsin    cag.yild@gmail.com
comments
We did not receive enough feedback on this tab! Please rate:
print report bad tab
1 2 3 4 5
I want to post or [tab]
guest
You may want to rate the tab now too:
select rating
Please do not post tabs as comments. Select "correction" instead!