Oops, an error
Loading. Please wait.

Perpetual Oyster Tab

version 1
version 1

Whole song

1,356 views 9 this week
no commentswrite comment
1 2 3 4 5
accurate
x 1
add to favorites
launch autoscroll
font size
0
reset
how to read this tab
guitar tuner
Tab Pro tools
  • play this tab
  • loop segment
  • change instrument
  • show fretboard
  • metronome
Autoscroll
slow
fast
+/-
esc
set tempo
stop
Contributor
Artist: Yawning Man
Song: Perpetual Oyster
Album: Rock Formations LP
Tab: stefirth16@hotmail.co.uk
Website: www.myspace.com/theyawningman 
Label: Lexicon Devil Records

Standard E Tuning

Main Guitar Riff


e|--------------------------------------------------------------------------|
B|--------------------------------------------------------------------------|
G|--------------------------------------------------------------------------|
D|--------------------------------------------------------------------------|
A|--7h10-10-7-10----------------4h7-7-4-7-------------3h5-5-3-5-------------|
E|----------------7h10-10-7-10-------------4h7-7-4-7-------------3h5-5-3-5--|


e|--------------------------------------------------------------------------|
B|--------------------------------------------------------------------------|
G|--------------------------------------------------------------------------|
D|--------------------------------------------------------------------------|
A|--4h7-7-4-7---------------------------------------------------------------|
E|-------------4h7-7-4-7----------------------------------------------------|


Secondary Riff


e|---------------------------------------------------------------------------|
B|----------------------------------------------12-12-12-12-8-8-8-10-10-10---|
G|----9-9-9-9-5-5-5-7-7-7--------------------------------------------------7-|
D|--7---------------------0-7-7-0-7-0-7-7-0-7-7------------------------------|
A|---------------------------------------------------------------------------|
E|---------------------------------------------------------------------------|


e|---------------------------------------------------------------------------|
B|---------------------------------------------------------------------------|
G|----7-7---7---7-7--7-------------------------------------------------------|
D|--7-----7---7----7---------------------------------------------------------|
A|---------------------------------------------------------------------------|
E|---------------------------------------------------------------------------|


Interlude


e|---------------------------------------------------------------------------|
B|---------------------------------------------------------------------------|
G|-----16sb------------------------------------------------------------------|
D|--14-----------10-12sb-----------------------------------------------------|
A|---------------------------------------------------------------------------|
E|---------------------------------------------------------------------------|

sb= slight bend
There are other slight variations which i didn't have time to add right now 
but I will in due time and based upon the riffs given here it shouldn't take 
long to work out. Any criticism welcome. This is my first so go easy on me :P
Will update eventually.
comments
We did not receive enough feedback on this tab! Please rate:
print report bad tab
1 2 3 4 5
I want to post or [tab]
guest
You may want to rate the tab now too:
select rating
Please do not post tabs as comments. Select "correction" instead!