Oops, an error
Loading. Please wait.

Only You bass

by Yazoo
305 views 9 this week
1 commentread comment
1 2 3 4 5
2 more votes to show rating
add to favorites
×
Save as Personal and add changes to this tab that will be seen only by you. Learn more ›
×
You can save this tab as Personal to edit and correct it or add notes. All changes will be seen only by you. Learn more »
launch autoscroll
font size
0
reset
guitar tuner
edit
Autoscroll
slow
fast
+/-
esc
set tempo
stop
Author
Only You
First single by Yazoo in 1982 reached number 2 in UK charts
Tab by bass50611. Nice and easy song to play. Tab as per
Original synth bass line. Comments bass254@btinternet.com 

Intro: (No Bass on Intro Keyboards only)

Verse 1:
  Looking from a window above is like a story of love... can you hear me?
G|-----------------------------------------------------------------------|
D|-----------------------------------------------------------------------|
A|-----------------------------------------------------------------------|
E|--------------------------------------------------------------5--------|

  Came Back yesterday, we’re moving farther away...want you near me
G|-------------------------------------------------------------------|
D|-------------------------------------------------------------------|
A|-------------------------------------------------------------------|
E|---------------------------------------------------------5---------|

Chorus:
  All I needed was the love you gave...all I needed for another day
G|------------------------------------------------------------------|
D|------------------------------------------------------------------|
A|----------------5-------------------------------------------------|
E|-----------------------------------5------------------------------|

  And all I ever knew...only you
G|-----------------------------------------------|
D|--------------------------------7-7----7---7-7-|
A|-5-------------7-------------------------------|
E|----------------------------5------------------|

Verse 2:                            (Play This x2)
G|-------------------------------------------|
D|-7---7-6---6-----------------------7---7---|
A|-------------9---9-7---7-5---5-5---------7-|
E|-------------------------------------------|

Chorus:
G|---------------------------------------------------|
D|----------------------7---7-7----------------------|
A|-5---5-5----7---7-7-------------5---5-5----5---5-5-|
E|---------------------------------------------------|

G|-----------------------------|
D|----------7---7-7----7---7-7-|
A|-7---7-7---------------------|
E|-----------------------------|

Instrumental:                    (Play This x2)
G|-------------------------------------------|
D|-7---7-6---6-----------------------7---7---|
A|-------------9---9-7---7-5---5-5---------7-|
E|-------------------------------------------|

Chorus:
G|---------------------------------------------------|
D|----------------------7---7-7----------------------|
A|-5---5-5----7---7-7-------------5---5-5----5---5-5-|
E|---------------------------------------------------|

G|-----------------------------|
D|----------7---7-7----7---7-7-|
A|-7---7-7---------------------|
E|-----------------------------|

Verse 3:                            (Play This x2)
G|-------------------------------------------|
D|-7---7-6---6-----------------------7---7---|
A|-------------9---9-7---7-5---5-5---------7-|
E|-------------------------------------------|

Chorus:
G|---------------------------------------------------|
D|----------------------7---7-7----------------------|
A|-5---5-5----7---7-7-------------5---5-5----5---5-5-|
E|---------------------------------------------------|

G|-----------------------------|
D|----------7---7-7----7---7-7-|
A|-7---7-7---------------------|
E|-----------------------------|

Outro:                            (Repeat To Fade/End
G|------------------------------------------
D|-7---7-7----7---7-7----7---7-7----7---7-7-
A|------------------------------------------
E|------------------------------------------


Looking from a window above it's like a story of love
Can you hear me
Came back only yesterday I'm moving further away
Want you near me

[Chorus:]
All I needed was the love you gave
All I needed for another day
And all I ever knew
Only you

Sometimes when I think of her name when it's only a game
And I need you
Listen to the words that you say it's getting harder to stay
When I see you

[Chorus x2]

This is going to take a long time and I wonder what's mine
Can't take no more (Can't take no more)
Wonder if you'll understand it's just the touch of your hand
Behind a closed door

All I needed was the love you gave
All I needed for another day
And all I ever knew (All I ever knew)
Only you
Suggest correction
Creating personal tab
Creating personal tab
You can edit any tab online and save it as your Personal.

You can edit, replace or remove any tab part or add personal notes – all changes will be seen only by you.

Personal tabs can be accessed anytime from any device, even offline.
Learn more »
Give kudos to tab author, rate the tab!
1 2 3 4 5
comments
print report bad tab
1 comment total.
0 reply
Mooro1966 10 Jul 07, 2016 06:02 AM

Great, thanks Keith!

guest
You may want to rate the tab now too:
select rating
Wanna post a correction for this tab? Suggest correction