Oops, an error
Loading. Please wait.

Cheated Hearts Tab

version 1
version 1

Acoustic

Whole song

Interactive

23,234 views 18 this week
no commentswrite comment
1 2 3 4 5
accurate
x 7
add to favorites
launch autoscroll
font size
0
reset
how to read this tab
guitar tuner
Autoscroll
slow
fast
+/-
esc
set tempo
stop
Help us to improve Ultimate-Guitar.com Take our survey!
×
Author


THIS TAB IS FROM THE AOL SESSIONS

INTRO/PRE-VERSE
e|---------------|
B|---------------|
G|---------------| (x12)
D|---------------|
A|--000000-12-12-|
E|---------------|


VERSE (HEAR IT WELL FOR THE RYTHM)
e|------0-----0-----0-----0-----0-----0-----0-----0--|
B|------2-----2-----2-----2-----2-----2-----2-----2--|
G|------2-----2-----2-----2-----2-----2-----2-----2--|(x2)
D|------2-----2-----2-----2-----0-----0-----0-----0--|
A|--0-0-0-0-0-0-0-0-0-0-0-0-0-2-2-2-2-2-2-2-2-2-2-2--|
E|---------------------------------------------------|
  (TAKE THIS RING STOLE THEM SAFEFULLY.....)

THEN MAKE THIS
e|-------0---0-------0---0-------0---0-----|
B|-------2---2-------2---2-------2---2-----|
G|-------2---2-------2---2-------2---2-----|
D|-------2---2-------0---0-------2---2-----|
A|---0-0-0-0-0-0-2-2-2-2-2-2-0-0-0-0-0-0-2-|
E|-----------------------------------------|

A LITTLE SILENCE

CHORUS (I THINK)
e|----0-----0-----0-----0-----0-----0-----0-----0-----0-----2-----2-----2---
B|----2-----2-----2-----2-----2-----2-----2-----2-----2-----2-----2-----2---
G|----2-----2-----2-----2-----2-----2-----2-----2-----2-----2-----2-----2---
D|----2-----2-----2-----2-----0-----0-----0-----0-----2-----2-----2-----2---
A|0-0-0-0-0-0-0-0-0-0-0-0-0-2-2-2-2-2-2-2-2-2-2-2-2-0-0-0-0-0-0-0-0-0-0-0-0-
E|--------------------------------------------------------------------------

IT CONTINUES.
-----2-----2-----2-----2--|
-----3-----3-----3-----3--|
-----2-----2-----2-----2--|
---0---0-0---0-0---0-0----|
-0------------------------|
--------------------------|


SOLO:
e|------5-5-----5-5-----12-12--|
B|------5-5-----5-5-----12-12--|
G|------5-5-----5-5-----12-12--|(x4)
D|------5-5-----5-5-----12-12--|
A|--0-0-----0-0----------------|
E|------------------0-0--------|

INTERLUDE:
e|-----9----9--------9----9-----|
B|--10---10-------10---10-------|
G|------------------------------| (REAPEAT TIMES NESSESARY WITH THE VOCALS)
D|------------7-9-----------9-7-|
A|------------------------------|
E|------------------------------|

ORDER:
INTRO
VERSE
CHORUS(x2)
SOLO
INTERLUDE
INTRO
VERSE
SOLO


THATS ALL ENJOY IT
Suggest correction
comments
print report bad tab
guest
You may want to rate the tab now too:
select rating
Please do not post tabs as comments. Select "correction" instead!