Oops, an error
Loading. Please wait.

Date With The Night Bass Tab

version 1
version 1

Whole song

Interactive

4,325 views 7 this week
1 commentread comment
1 2 3 4 5
please rate
add to favorites
launch autoscroll
font size
0
reset
guitar tuner
Tab Pro tools
  • play this tab
  • loop segment
  • change instrument
  • show fretboard
  • metronome
×
Best way to learn
"Date With The Night"
Autoscroll
slow
fast
+/-
esc
set tempo
stop
Band: Yeah Yeah Yeahs
Song: Date With the Night
Album: Fever to Tell
Tuning: Standard (EADG)

Intro is just guitar

Verses
G|----------------------|
D|----------------------|
A|----------------------|
E|-0-0-15-17--0-0-10-12-|
Repeat as needed

Fill 1 *
G|---------------------|
D|---------------------|
A|-7-7-7-7-7-5-5-5-5-5-|
E|---------------------|

Fill 2 *
G|---------------------|
D|-4-4-4-4-4-2-2-2-2-2-|
A|---------------------|
E|---------------------|

* = I'm not really sure how many times you play the notes, just listen to the song and 
figure it out.

Chorus? (Chow Chow! part)
this is tough to play on bass so this is all I do
G|-0-|
D|-0-|
A|-0-|   All palm muted
E|-0-|
   .
Repeated as needed

And for the part that sounds like a really slow, high pitched guitar slide, just 
or let it be a guitar solo. What ever you think sounds best.

I think that's about it, it's a great tune by the YYY's and I hope I tabbed it right!
comments
We did not receive enough feedback on this tab! Please rate:
print report bad tab
1 2 3 4 5
1 comment total.
0 reply
Jordo141 wrote on June 10 2011, 12:47 pm

The main riff is right.

Fill 1 should be
G|---------------------------------|
D|---------------------------------|
A|---------------------------------|
E|-5-5-5-5-5-5-5-5-3-3-3-3-3-3-3-3-|

Fill 2 should be
G|---------------------------------|
D|---------------------------------|
A|-7-7-7-7-7-7-7-7-5-5-5-5-5-5-5-5-|
E|---------------------------------|

And for the chorus you can improv... I prefer to just slide like so:
G|------|
D|------|
A|-2/12-| (as nesessary; believe it's 16 times mostly)
E|------|

I want to post or [tab]
guest
You may want to rate the tab now too:
select rating
Please do not post tabs as comments. Select "correction" instead!