Oops, an error
Loading. Please wait.

Dull Life Bass Tab

version 1
version 1

Whole song

Interactive

557 views 1 this week
no commentswrite comment
1 2 3 4 5
please rate
add to favorites
launch autoscroll
font size
0
reset
guitar tuner
Autoscroll
slow
fast
+/-
esc
set tempo
stop
Help us to improve Ultimate-Guitar.com Take our survey!
×
Author
Difficulty
intermediate
G|------------|
D|-9--9--9--9-|
A|------------|x4
E|------------|

G|-------------------------------------7--7--7--7-|
D|-9--9--9--9--7--7--7--7-------------------------|
A|-------------------------7--7--7--7-------------|x2
E|------------------------------------------------|

That's not in the song, but you can play it anyway.

G|------------------------------------------------|
D|------------------------------------------------|
A|-------------------------------------5--5--5--5-|x2
E|-7--7--7--7--5--5--5--5--0--0--0--0-------------|

G|-----------------------------------------------------------------------|
D|-----------------------------------------------------------------------|
A|-----4-4-5-----4-4-5-----4-4-5-----7-5---------------------------------|x2
E|-7-7-------5-5-------3-3-------2-2-----3-3-5-5-7-5-5-7-7-9-777-5-777-5-|

Play this along with the drums.
G|-------------|
D|-------------|
A|-2--5-2--0-5-|x7
E|-------------|

G|-------------|
D|-------------|
A|-00000000000-|
E|-------------|

G|-------------|
D|-------------|
A|-2--5-2--0-5-|x7
E|-------------|

G|-------------|
D|-------------|
A|-00000000000-|
E|-------------|

G|-------------|
D|-------------|
A|-2--5-2--0-5-|x7

G|-------------|
D|-------------|
A|-00000000000-|
E|-------------|

G|------------------------------------------------|
D|------------------------------------------------|
A|-------------------------------------5--5--5--5-|x2
E|-7--7--7--7--5--5--5--5--0--0--0--0-------------|

G|--------------------------------------------------|
D|--------------------------------------------------|
A|---------------5555555555555577777777779999999999-|x2
E|-77777777777777-----------------------------------|

G|-----------------------------------------------------------------------|
D|-----------------------------------------------------------------------|
A|-----4-4-5-----4-4-5-----4-4-5-----7-5---------------------------------|x2
E|-7-7-------5-5-------3-3-------2-2-----3-3-5-5-7-5-5-7-7-9-777-5-777-5-|

G|---|
D|---|
A|-2-|
E|---|

This part comes in at 2:53
G|---------------7-------------9-------------11--------------|
D|-9---------------------------------------------------------|
G|-----------------------------------------------------------|
D|-----------------------------------------------------------|

G|---------------7-------------9----------------------------|
D|-9--------------------------------------------------------|
G|-------------------------------------------9--------------|
D|----------------------------------------------------------|

G|---------------7-------------9-------------11--------------|
D|-9---------------------------------------------------------|
G|-----------------------------------------------------------|
D|-----------------------------------------------------------|

G|------------------------------------------------|
D|------------------------------------------------|
A|-------------------------------------5--5--5--5-|x2
E|-7--7--7--7--5--5--5--5--0--0--0--0-------------|

G|-------------------------------------------------------------------|
D|-------------------------------------------------------------------|
A|-----4-4-5-----4-4-5-----4-4-5-----7-5-----------------------------|
E|-7-7-------5-5-------3-3-------2-2-----3-3-5-5-7-5-5-7-7-9-777-5-7-|
Suggest correction
Give kudos to tab author, rate the tab!
1 2 3 4 5
comments
print report bad tab
guest
You may want to rate the tab now too:
select rating
Please do not post tabs as comments. Select "correction" instead!