Oops, an error
Loading. Please wait.

Gold Lion Bass Tab

version 1
version 1

Whole song

Interactive

5,337 views 3 this week
no commentswrite comment
1 2 3 4 5
worth learning
x 4
add to favorites
launch autoscroll
font size
0
reset
guitar tuner
Autoscroll
slow
fast
+/-
esc
set tempo
stop
Help us to improve Ultimate-Guitar.com Take our survey!
×
Author
Difficulty
novice
-------------------------------------------------------------------------------
			     Goldlion - Yeah Yeah Yeahs
-------------------------------------------------------------------------------

Tabbed By : SUPAH FLY

This bass line is one I wrote for this song using chords on this site, but personally 
hearing it from friends I think its better. It gets the job done and the chords are mostly 
same through the song so just work with it.

     (v let that 4 ring till half way through the next chord.)
G|--6-4---4---4-2-2----------------------------------------------------------|
D|-4-4---4-422-2-2-2---------------------------------------------------------|
A|---------------------------------------------------------------------------|
E|---------------------------------------------------------------------------|

(alternate version - not as good I think.)

G|---6-22-2--4-2-2-----------------------------------------------------------|
D|-44-4--2-22-2-2-2----------------------------------------------------------|
A|---------------------------------------------------------------------------|
E|---------------------------------------------------------------------------|

"Whos your daddy? Im your daddy cause I did it to yo momma!"
Suggest correction
comments
print report bad tab
guest
You may want to rate the tab now too:
select rating
Wanna post a correction for this tab? Suggest correction