Oops, an error
Loading. Please wait.

Heads Will Roll Tab

62,290 views 90 this week
6 commentsread comments
1 2 3 4 5
x 13
add to favorites
launch autoscroll
font size
0
reset
how to read this tab
guitar tuner
Autoscroll
slow
fast
+/-
esc
set tempo
stop
Difficulty
intermediate
Yeah Yeah Yeahs - Heads will Roll
Opening - Synthesizer mapped to guitar

e|--------------------|
B|--------------------|
G|--------------------|
D|--------------------| x2
A|---------11----9----|
E|-12--11-------------|

e|--------------------|
B|--------------------|
G|--------------------|
D|--------------------| x2
A|---------11----9----|
E|-9--11--------------|

(This continues through the first verse)
[Pre-chorus 1]

("The men cry out. The girls cry out...")
e|--16--14------16--14---------|
B|---------16----------14------|
G|-----------------------------|
D|-----------------------------| x7
A|-----------------------------|
E|-----------------------------|

(then)
e|--16----19-----20----19------|
B|-----14----14-----14----14---|
G|-----------------------------|
D|-----------------------------| 
A|-----------------------------|
E|-----------------------------|

[Pre-Chorus 2]
(NOTE: You could go back to playing the synthesizer intro or play the higher
guitar part)
e|--16-14----14----|
B|--------14-------|
G|-----------------|
D|-----------------| x16
A|-----------------|
E|-----------------|

[Chorus]
("Off, Off with ya head..")
e|----------------------------------------------|
B|----------------------------------------------|
G|----------------------------------------------| x2
D|-14-14-14-14--13-13-13-13--6-6-6-6-6-6-6-6----|
A|-14-14-14-14--13-13-13-13--6-6-6-6-6-6-6-6----|
E|-12-12-12-12--11-11-11-11--4-4-4-4-4-4-4-4----|

("Heads will roll...")
e|-------------------------------------------------|
B|-------------------------------------------------|
G|-6-6-6-6--8-8-8-8--13-13-13-13-13-13-11-11-------|
D|-6-6-6-6--8-8-8-8--13-13-13-13-13-13-11-11-------| 
A|-4-4-4-4--6-6-6-6--11-11-11-11-11-11-9--9--------| 
E|-------------------------------------------------|

e|-------------------------------------------------|
B|-------------------------------------------------|
G|-9-9-9-9--11-11-11-11--13-13-13-13-13-13-13-13---|
D|-9-9-9-9--11-11-11-11--13-13-13-13-13-13-13-13---| 
A|-7-7-7-7--9--9--9--9---11-11-11-11-11-11-11-11---|
E|-------------------------------------------------|

[Bridge 2]
("Can You Last...")
e|-----------------------------------|
B|-----------------------------------|
G|-13--11---------------13-----------|
D|-13--11-13----11--13--13-----------|X 4
A|-11--9--13----11--13--11-----------|
E|--------11----9---11---------------|

e|--16---14----16---14----16--14-----16-----14------|
B|----------14---------14--------14------14----14---|
G|--------------------------------------------------|
D|--------------------------------------------------| 
A|--------------------------------------------------|
E|--------------------------------------------------|

e|--16--14----14---|
B|---------14------|
G|-----------------|
D|-----------------|x 4 
A|-----------------|
E|-----------------|

e|--16---14----16---14----16--14-----16-----14------|
B|----------14---------14--------14------14----14---|
G|--------------------------------------------------|
D|--------------------------------------------------| 
A|--------------------------------------------------|
E|--------------------------------------------------|

[Verse 2]
(Same as chorus - less distortion)
("Glitter on the wet streets")
e|----------------------------------------------|
B|----------------------------------------------|
G|----------------------------------------------| x2
D|-14-14-14-14--13-13-13-13--6-6-6-6-6-6-6-6----|
A|-14-14-14-14--13-13-13-13--6-6-6-6-6-6-6-6----|
E|-12-12-12-12--11-11-11-11--4-4-4-4-4-4-4-4----|

e|-------------------------------------------------|
B|-------------------------------------------------|
G|-6-6-6-6--8-8-8-8--13-13-13-13-13-13-11-11-------|
D|-6-6-6-6--8-8-8-8--13-13-13-13-13-13-11-11-------| 
A|-4-4-4-4--6-6-6-6--11-11-11-11-11-11-9--9--------| 
E|-------------------------------------------------|

e|-------------------------------------------------|
B|-------------------------------------------------|
G|-9-9-9-9--11-11-11-11--13-13-13-13-13-13-13-13---|
D|-9-9-9-9--11-11-11-11--13-13-13-13-13-13-13-13---| 
A|-7-7-7-7--9--9--9--9---11-11-11-11-11-11-11-11---| 
E|-------------------------------------------------|

("You're all chrome")
e|-------------------------------------------------|
B|-------------------------------------------------|
G|-9-9-9-9--11-11-11-11--13-13-13-13-13-13-13-13---|
D|-9-9-9-9--11-11-11-11--13-13-13-13-13-13-13-13---| 
A|-7-7-7-7--9--9--9--9---11-11-11-11-11-11-11-11---| 
E|-------------------------------------------------|

[Solo]
(Tremolo picked)
e|--16--14--11---16--19--20---16--14--11--9--11--16--|
B|---------------------------------------------------|
G|---------------------------------------------------|
D|---------------------------------------------------| 
A|---------------------------------------------------|
E|---------------------------------------------------|

[Chorus]
(Tremolo again)
Suggest correction
comments
print report bad tab
6 comments total. Showing first comments.
0 reply
Optimitron 10 Aug 15, 2009 11:38 PM

This was a really good tab. I didn't think this was a very guitar orientated song, you sure showed me. Now, I just need to figure out how to get a synth type sound out of my amp...

-2 reply
cdek12309 16 Aug 16, 2009 07:57 PM

PERFECT

+2 reply
sir-psycho-sexy 31 Dec 05, 2009 12:13 PM

there's a couple of bits where the 19s and 20s should be 18s and 19s but other than that it sounds spot on

guest
Wanna post a correction for this tab? Suggest correction