Oops, an error
Loading. Please wait.

Kiss Kiss Tab

version 1
version 1

Whole song

Interactive

15,624 views 3 this week
no commentswrite comment
1 2 3 4 5
x 6
add to favorites
launch autoscroll
font size
0
reset
how to read this tab
guitar tuner
Autoscroll
slow
fast
+/-
esc
set tempo
stop
Help us to improve Ultimate-Guitar.com Take our survey!
×
Difficulty
novice
YYYs!- Kiss Kiss [from Isis]
d.c. 

Intro & Verse 1(0:01-0:30)
e|-------------------------------------------------------------------|
B|-------------------------------------------------------------------|
G|--7-7-7-7--11-11-11-11------------9-9-9-9--------------------------|
D|--5-5-5-5---9--9--9--9---9-9-9-9--7-7-7-7--------------------------|
A|-------------------------7-7-7-7-----------------------------------|
E|-------------------------------------------------------------------|x10
   (all palm-muted)

Pre chorus  (0:30-0:39)
e|--------------------------------------------------------------------| 
B|--------------------------------------------------------------------|
G|-7----------9999--11-----11-----14----------------------------------|
D|-5(x8)-7777--------9(x8)-12(x4)-12(x4)------------------------------|
A|--------------------------------------------------------------------|
E|--------------------------------------------------------------------|
  (all palm muted except for 15's)

   
Pre chorus part 2(0:39-0:42)
e|-------------------------------------------------------------------------|
B|------15---------15----------15----15----15---15-----15-15-15-15-15------|
G|-16--------16-------------16----16----16---16----16--16------------------|
D|-14(x6)----14(x6)---------14----14----14---14----14----------------------|
A|-------------------------------------------------------------------------|
E|-------------------------------------------------------------------------|

Chorus (0:43-1:07)
e|-----10-----10-----10-----10---------------------------------------------|
B|---------------------------------10---10------10--10-----8-------8----8--|
G|-9-------9------7------7-------------------------------------------------|
D|-7-------7------5------5------9-----9----9-9-----9---7-----7--7-----7----|
A|-7(x6)---7(x6)--5(x6)--5(x6)--9-----9----9-9-----9---7-----7--7-----5----|
E|------------------------------7(x4)-7----7-7(x4)-7---5(x4)-5--5(x4)-5----| 
(x2)

(1:08-1:19)
e|-10--------------------------------------------------------------|
B|---12(x4)--------------------------------------------------------|
G|---------12------16------11--------------------------------------|
D|-----------14(x4)--17(x4)--12(x4)--------------------------------|
A|-----------------------------------------------------------------|
E|-----------------------------------------------------------------|

Verse 2(1:20-1:37)
e|------------------------------------------------------------------------|
B|------------------------------------------------------------------------|
G|-12----9------------------------4----------3----------------------------|
D|-12----9-----9------7------5----4-----2----3----------------------------|
A|-10(x8)7(x8)-9------7------5----2(x4)-2----0(x4)------------------------|
E|-------------7(x8)--5(x8)--3(x4)------0(x4)-----------------------------| 
                     (repeat from here to here 4 times)

  (1:38-1:44)
e|-----------------------------------------------------------------------|
B|-----------------------------------------------------------------------|
G|-----------------------------------------------------------------------|
D|-5-----7-----9-----12--------------------------------------------------|
A|-5-----7-----9-----12--------------------------------------------------|
E|-3(x8)-5(x8)-7(x8)-10(x8)----------------------------------------------|

(1:45-1:59) Pre Chorus 2

(2:00-2:24) Chorus

Outro(2:01-2:36)
e|------------------------------------------------------------------|
B|------------------------------------------------------------------|
G|-7-7---11-11--4-4--9-9--------------------------------------------|
D|-x-x---x--x---x-x--x-x--------------------------------------------|
A|-5-5---9--9---2-2--7-7--------------------------------------------|
E|------------------------------------------------------------------| x4
                     



Suggest correction
comments
print report bad tab
guest
You may want to rate the tab now too:
select rating
Wanna post a correction for this tab? Suggest correction