Oops, an error
Loading. Please wait.

Maps Tab

version 8
version 8

Interactive

33,002 views 117 this week
no commentswrite comment
1 2 3 4 5
accurate
x 4
add to favorites
launch autoscroll
font size
0
reset
how to read this tab
guitar tuner
Autoscroll
slow
fast
+/-
esc
set tempo
stop
Help us to improve Ultimate-Guitar.com Take our survey!
×
Contributor
Difficulty
novice
Standard Tuning.

*Really fast picking during the entire song*
e|--1010101010101010101010101010101010101010101010----|
B|----------------------------------------------------|
G|----------------------------------------------------|
D|----------------------------------------------------|
A|----------------------------------------------------|
E|----------------------------------------------------|

Verse: "Pack up..."
e|---------------------------------10-10-10-10---------------------12-12-12-12-15-15-15-15-|
B|-12-12-12-12-8-8-8-8-12-12-12-12-------------12-12-12-12-8-8-8-8-------------------------|
G|-----------------------------------------------------------------------------------------|
D|-----------------------------------------------------------------------------------------|
A|-----------------------------------------------------------------------------------------|
E|-----------------------------------------------------------------------------------------|

Chorus: "Wait, they don't love you like..."
e|-----------------------------------------------------------------------------------------------|
B|-----------------------------------------------------------------------------------------------|
G|-----------------------------------------------------------------------------------------------|
D|-1212121212121212-55555555-1414141414141414-55555555-1010101099999999-1212121212121212-55555555|
A|-xxxxxxxxxxxxxxxx-xxxxxxxx-xxxxxxxxxxxxxxxx-xxxxxxxx-xxxxxxxxxxxxxxxx-xxxxxxxxxxxxxxxx-xxxxxxxx|
E|-1010101010101010-33333333-1212121212121212-33333333-8888888877777777-1010101010101010-33333333|

e|-19-19-19-17-15-15-15-15-12-12-12-10-15-15-15-15----|
B|----------------------------------------------------|
G|----------------------------------------------------|
D|----------------------------------------------------|
A|----------------------------------------------------|
E|----------------------------------------------------|


Verse: "Made off..." Repeat twice.
e|---------------------------------10-10-10-10---------------------12-12-12-12-15-15-15-15-|
B|-12-12-12-12-8-8-8-8-12-12-12-12-------------12-12-12-12-8-8-8-8-------------------------|
G|-----------------------------------------------------------------------------------------|
D|-----------------------------------------------------------------------------------------|
A|-----------------------------------------------------------------------------------------|
E|-----------------------------------------------------------------------------------------|

Chorus (Repeat twice):
e|-----------------------------------------------------------------------------------------------|
B|-----------------------------------------------------------------------------------------------|
G|-----------------------------------------------------------------------------------------------|
D|-1212121212121212-55555555-1414141414141414-55555555-1010101099999999-1212121212121212-55555555|
A|-xxxxxxxxxxxxxxxx-xxxxxxxx-xxxxxxxxxxxxxxxx-xxxxxxxx-xxxxxxxxxxxxxxxx-xxxxxxxxxxxxxxxx-xxxxxxxx|
E|-1010101010101010-33333333-1212121212121212-33333333-8888888877777777-1010101010101010-33333333|


Solo:
e|-------------------------------------------------------------------------------|
B|-------------------------------------------------------------------------------|
G|-------------------------------------------------------------------------------|
D|-121212-11-12-11\-5555/77--121212-11-1616\-5555/77--121212-11-12-11\-5555/77---|
A|-xxxxxx-x--xx-x\--xxxx/xx--xxxxxx-x--xxxx\-xxxx/xx--xxxxxx-x--xx-x\--xxxx/xx---|
E|-101010-9--10-9\--3333/55--101010-9--1414\-3333/55--101010-9--10-9\--3333/55---|

----------------------------------|
----------------------------------|
----------------------------------|
---121212-11-1616-14-12-5---------|
---xxxxxx-x--xxxx-xx-xx-x---------|
---101010-9--1414-12-10-3---------|

Bridge:

e|--3-3-3-3----3-3---3-3----3-3-3-----3---3-3-3----3----3-3-3-3---3-3---3-3--|
B|---3-3-3------3-----3------3-3-----------3-3-----------3-3-3-----3-----3---|
G|-0------------------------------------0-------------0----------------------|
D|-----------2-----0--------------------------------------------2------0-----|
A|---------------------------------------------------------------------------|
E|------------------------3--------3-------------3---------------------------|

----3-3-3----3---3-3-3-|
-----3-3----------3-3--|
---------------0-------|
-----------------------|
-----------------------|
--3-------3------------|


Chorus (Repeat twice):
e|-----------------------------------------------------------------------------------------------|
B|-----------------------------------------------------------------------------------------------|
G|-----------------------------------------------------------------------------------------------|
D|-1212121212121212-55555555-1414141414141414-55555555-1010101099999999-1212121212121212-55555555|
A|-xxxxxxxxxxxxxxxx-xxxxxxxx-xxxxxxxxxxxxxxxx-xxxxxxxx-xxxxxxxxxxxxxxxx-xxxxxxxxxxxxxxxx-xxxxxxxx|
E|-1010101010101010-33333333-1212121212121212-33333333-8888888877777777-1010101010101010-33333333|

Solo:
Solo:
e|-------------------------------------------------------------------------------|
B|-------------------------------------------------------------------------------|
G|-------------------------------------------------------------------------------|
D|-121212-11-12-11\-5555/77--121212-11-1616\-5555/77--121212-11-12-11\-5555/77---|
A|-xxxxxx-x--xx-x\--xxxx/xx--xxxxxx-x--xxxx\-xxxx/xx--xxxxxx-x--xx-x\--xxxx/xx---|
E|-101010-9--10-9\--3333/55--101010-9--1414\-3333/55--101010-9--10-9\--3333/55---|

----------------------------------|
----------------------------------|
----------------------------------|
---121212-11-1616-14-12-5~--------|
---xxxxxx-x--xxxx-xx-xx-x~--------|
---101010-9--1414-12-10-3~--------|


Ends with fast picking.
e|--1010101010101010101010101010101010101010101010----|
B|----------------------------------------------------|
G|----------------------------------------------------|
D|----------------------------------------------------|
A|----------------------------------------------------|
E|----------------------------------------------------|
comments
print report bad tab
I want to post or [tab]
guest
You may want to rate the tab now too:
select rating
Please do not post tabs as comments. Select "correction" instead!