Oops, an error
Loading. Please wait.

Mosquito Bass Tab

13 views 3 this week
no commentswrite comment
1 2 3 4 5
3 more votes to show rating
add to favorites
launch autoscroll
font size
0
reset
guitar tuner
Autoscroll
slow
fast
+/-
esc
set tempo
stop
Help us to improve Ultimate-Guitar.com Take our survey!
×
Author
Difficulty
novice
[Intro]

G|---------------------------------------------------------------------------|
D|---------------------------------------------------------------------------|
A|---------------------------------------------------------------------------|
E|--10--10--10--10--10--10---10-8-10-8----10--10--10--10--10--10---10-8-10-8-|


[Verse 1]

G|---------------------------------------------------------------------------|
D|---------------------------------------------------------------------------|
A|---------------------------------------------------------------------------|
E|--10--10--10--10--10--10---10-8-10-8----10--10--10--10--10--10---10-8-10-8-| x2


[Chorus]
"They'll suck your blood..."
G|---------------------------------------------------------------------------|
D|---------------------------------------------------------------------------|
A|------------------8------------------------10------------------------------|
E|----10-------------------------6-------------------------------------------| x2

[Verse 2]

G|---------------------------------------------------------------------------|
D|---------------------------------------------------------------------------|
A|---------------------------------------------------------------------------|
E|--10--10--10--10--10--10---10-8-10-8----10--10--10--10--10--10---10-8-10-8-| x2

[Chorus]
"They'll suck your blood..."
G|---------------------------------------------------------------------------|
D|---------------------------------------------------------------------------|
A|------------------8------------------------10------------------------------|
E|----10-------------------------6-------------------------------------------|

[Verse 3]

G|---------------------------------------------------------------------------|
D|---------------------------------------------------------------------------|
A|---------------------------------------------------------------------------|
E|--10--10--10--10--10--10---10-8-10-8----10--10--10--10--10--10---10-8-10-8-|x4

[Last chorus]
G|---------------------------------------------------------------------------|
D|---------------------------------------------------------------------------|
A|------------------8-8-8-8----------10-10-10-10-----------------------------|
E|----10-10-10-10------------6-6-6-6-----------------------------------------|

Suggest correction
Give kudos to tab author, rate the tab!
1 2 3 4 5
comments
print report bad tab
guest
You may want to rate the tab now too:
select rating
Wanna post a correction for this tab? Suggest correction