Oops, an error
Loading. Please wait.

Poor Song Tab

version 1
version 1

Whole song

1,727 views 6 this week
no commentswrite comment
1 2 3 4 5
please rate
add to favorites
launch autoscroll
font size
0
reset
how to read this tab
guitar tuner
Autoscroll
slow
fast
+/-
esc
set tempo
stop
Help us to improve Ultimate-Guitar.com Take our survey!
×
Hi, this's my first tab, hope you find it useful.
This is Poor Song also known as Porcelain by the Yeah Yeah Yeahs,

INTRO

MMM CH, MMM MMM CH

MMM CH, MMM MMM CH

E||------------------------|
B||------------------------|
G||------------------------|
D||--5-----------5-5-------|   (x4)
A||--5-----------5-5-------|
E||--3-----------3-3-------|
        MMM     CH        MMM MMM CH

VERSE

E||------------------------------------|
B||------------------------------------|
G||------------------------------------|
D||--5-------5-5-------5-------5-5-----|
A||--5-------5-5-------5-------5-5-----|
E||--3-------3-3-------3-------3-5-----|
     BABY I'M AFRAID             OF A LOT OF THINGS BUT

E||---------------------------------|
B||---------------------------------|
G||---------------------------------|
D||--3-------3-3-------3----3-3-----|
A||--3-------3-3-------3----3-3-----|
E||--0-------0-0-------0----0-0-----|
       I AIN'T SCARED OF          LOVIN' YOU

E||----------------------------------------|
B||----------------------------------------|
G||----------------------------------------|
D||--5-------5-5-----------5-------5-5-----|
A||--5-------5-5-----------5-------5-5-----|
E||--3-------3-3-----------3-------3-5-----|
     BABY I KNOW YOU'RE AFRAID OF A LOT OF THINGS BUT

E||---------------------------------|
B||---------------------------------|
G||---------------------------------|
D||--3-------3-3-------3----3-3-----|
A||--3-------3-3-------3----3-3-----|
E||--0-------0-0-------0----0-0-----|
      DON'T BE SCARED OF     LOVE 'CAUSE

E||---------------------------------|
B||---------------------------------|
G||--5-------5-5-------5----5-5-----|
D||--5-------5-5-------5----5-5-----|
A||--3-------3-3-------3----3-3-----|
E||---------------------------------|
       PEOPLE WILL SAY ALL KINDS OF THINGS

E||---------------------------------|
B||---------------------------------|
G||---------------------------------|
D||--7-------7-7-------7----7-7-----|
A||--7-------7-7-------7----7-7-----|
E||--5-------5-5-------5----5-5-----|
      THAT DON'T MEAN     A DAMN TO ME 'CAUSE

E||--------------------------------|
B||--------------------------------|
G||------7-------------------------|
D||------7-------------------------|
A||------5-------------------------|
E||--------------------------------|
         ALL I SEE IS WHAT'S IN FRONT OF ME

E||--------------------|
B||--------------------|
G||--------------------|
D||----------------7---|   (x17)
A||----------------7---|
E||----------------5---|
       AND THAT'S YOU

--------THEN PLAY AGAIN THE VERSE------------

WELL I'VE BEEN DRAGGED ALL OVER THE PLACE

I'VE TAKEN HITS TIME JUST DON'T EREASE

AND BABY I CAN SEE YOU'VE BEEN FUCKED WITH TOO BUT

THAT DON'T MEAN YOUR LOVIN' DAYS ARE THROUGH 'CAUSE

PEOPLE WILL SAY ALL KINDS OF THINGS

THAT DON'T MEAN A DAMN TO ME 'CAUSE

ALL I SEE IS WHAT'S IN FRONT OF ME

AND THAT'S YOU

WELL I'M MAYBE JUST A FOOL

E||---------------------------|
B||---------------------------|
G||---------------7-----------|
D||---------------7-----------|
A||---------------5-----------|
E||---------------------------|
       BUT I KNOW YOU'RE JUST AS COOL

E||-------------------|
B||-------------------|
G||---------------7---|
D||---------------7---|
A||---------------5---|
E||-------------------|
                   AND COOL KIDS

E||---------------------|
B||---------------------|
G||---------------------|
D||----------------12---|   (x9)
A||----------------12---|
E||----------------10---|
       THEY BELONG       TOGETHER
Suggest correction
What's this?
You can suggest a correction to this tab. Community and Mods will review your correction and vote to approve or reject it.
comments
We did not receive enough feedback on this tab! Please rate:
print report bad tab
1 2 3 4 5
guest
You may want to rate the tab now too:
select rating
Please do not post tabs as comments. Select "correction" instead!