Oops, an error
Loading. Please wait.

Poor Song Tab

version 2
version 2

Whole song

1,376 views 3 this week
no commentswrite comment
1 2 3 4 5
2 more votes to show rating
add to favorites
launch autoscroll
font size
0
reset
how to read this tab
guitar tuner
Autoscroll
slow
fast
+/-
esc
set tempo
stop
Help us to improve Ultimate-Guitar.com Take our survey!
×
Author
Difficulty
novice
POOR SONG - Yeah Yeahs Yeahs

Tabbed by: spiral_static
Email: an_ecumenical_matter@hotmail.com

Tuning: Standard


INTRO

"Mmm... Ch. Mmm mmm... Ch"

e|-----------------------|
B|-----------------------|
G|-----------------------|
D|-----------------------|            x 4
A|-5---5-5-x---5---5-5-x-|
E|-3---3-3-x---3---3-3-x-|


VERSE 1

"Baby, I'm afraid of a lot of things but/ I ain't scared of loving you"

e|------------------------------------------------|
B|------------------------------------------------|
G|------------------------------------------------|
D|------------------------------------------------|
A|-5---5-5-x---5---5-5-x---2---2-2-x---2---2-2--7-|
E|-3---3-3-x---3---3-3-x---0---0-0-x---0---0-0--5-|

"And baby I know you're afraid of a lot of things but/ don't be scared of love, love cos"

e|------------------------------------------------|
B|------------------------------------------------|
G|------------------------------------------------|
D|------------------------------------------------|
A|-5---5-5-x---5---5-5-x---2---2-2-x---2---2-2--x-|
E|-3---3-3-x---3---3-3-x---0---0-0-x---0---0-0--x-|


CHORUS

"People will say all kinds of things/ but that don't mean a damn to me"

e|-----------------------------------------------------|
B|-----------------------------------------------------|
G|-----------------------------------------------------|
D|-----------------------------------------------------|
A|-10---10-10-x---10---10-10-x---7---7-7-x---7---7-7-x-|
E|--8----8--8-x----8----8--8-x---5---5-5-x---5---5-5-x-|

"'Cos all I see is what's in front of me/ and that's you"

e|-----------------------------------------------------|
B|-----------------------------------------------------|
G|-----------------------------------------------------|
D|-----------------------------------------------------|
A|-10------10\---------7-7-7-7-7-7-7-7-7-7-7-7-7-7-7-7-|
E|--8-------8\---------5-5-5-5-5-5-5-5-5-5-5-5-5-5-5-5-|


VERSE 2

"Well, I've been dragged all over the place/ I've taken hits time just don't erase"

e|------------------------------------------------|
B|------------------------------------------------|
G|------------------------------------------------|
D|------------------------------------------------|
A|-5---5-5-x---5---5-5-x---2---2-2-x---2---2-2--7-|
E|-3---3-3-x---3---3-3-x---0---0-0-x---0---0-0--5-|

"And baby I know you've been fucked with too/ but that don't mean your loving days are through"

e|------------------------------------------------|
B|------------------------------------------------|
G|------------------------------------------------|
D|------------------------------------------------|
A|-5---5-5-x---5---5-5-x---2---2-2-x---2---2-2--x-|
E|-3---3-3-x---3---3-3-x---0---0-0-x---0---0-0--x-|


CHORUS

"'Cos people will say all kinds of things/ but that don't mean a damn to me"

e|----8--------8------8-------8-------5-----5----5-----5--|
B|----8--------8------8-------8-------5-----5----5-----5--|
G|--------------------------------------------------------|
D|--------------------------------------------------------|
A|-10----10-10-----10----10-10------7---7-7----7---7-7----|
E|--8-----8--8------8-----8--8------5---5-5----5---5-5----|

"'Cos all I see is what's in front of me/ and that's you"

e|-----------------------------------------------------|
B|-----------------------------------------------------|
G|-----------------------------------------------------|
D|-----------------------------------------------------|
A|-10------10\---------7-7-7-7-7-7-7-7-7-7-7-7-7-7-7-7-|
E|--8-------8\---------5-5-5-5-5-5-5-5-5-5-5-5-5-5-5-5-|


OUTRO

"Well I may be just a fool/ but I know you're just as cool"

e|------------------------5--|
B|------------------------5--|
G|------------------------5--|
D|------------------------7--|
A|-10------10\------------7--|
E|--8-------8\------------5--|

"And cool kids/ they belong together."

e|-5---------------------------|
B|-5---------------------------|
G|-5---------------------------|
D|-7---------------------------|
A|-7---------5-5-5-5-5-5-5-5-5-|
E|-5---------3-3-3-3-3-3-3-3-3-|



| /  slide up
| \  slide down
| h  hammer-on
| p  pull-off
| ~  vibrato
| +  harmonic
| x  Mute note

Suggest correction
Give kudos to tab author, rate the tab!
1 2 3 4 5
comments
print report bad tab
guest
You may want to rate the tab now too:
select rating
Wanna post a correction for this tab? Suggest correction