Oops, an error
Loading. Please wait.

Sealings Tab

version 1
version 1

Whole song

Interactive

2,531 views 1 this week
3 commentsread comments
1 2 3 4 5
1 last vote to show rating
add to favorites
launch autoscroll
font size
0
reset
how to read this tab
guitar tuner
Autoscroll
slow
fast
+/-
esc
set tempo
stop
Help us to improve Ultimate-Guitar.com Take our survey!
×
Author
Difficulty
intermediate
-------------------------------------------------------------------------------
                             Sealings - Yeah Yeah Yeahs
-------------------------------------------------------------------------------
Tabbed by:theStallions
Email:austinemail13@yahoo.com

Tuning:Standard

Main Riff
e|--------------------------------------------------------------------------|
B|--------------------------------------------------------------------------|
G|--------------------------------------------------------------------------|
D|--------------------------------------------------------------------------|
A|--------------------------------------------------------------------------|
E|15-0-15-15-0--15-0-15-0-15-0-15-0--14-0-14-0--14-0-14-0-14-0--------------|

e|--------------------------------------------------------------------------|
B|--------------------------------------------------------------------------|
G|--------------------------------------------------------------------------|
D|--------------------------------------------------------------------------|
A|--------------------------------------------------------------------------|
E|17-0-17-0--17-0-17-0-17-0-17-17----19-19-19-17-15-12----------------------|
Very Sick Main Riff

"I want out"
e|--------------------------------------------------------------------------|
B|--------------------------------------------------------------------------|
G|55/77--------17-------19--------------------------------------------------|
D|55/77---------------------------------------------------------------------|
A|33/55---3/15----3/15------------------------------------------------------|
E|--------3/15----3/15------------------------------------------------------|
"drop drop..."
e|--------------------------------------------------------------------------|
B|--------------------------------------------------------------------------|
G|--------------------------------------------------------------------------|
D|/1010101010---55555---77777---77777---------------------------------------|
A|/1010101010---55555---77777---77777---------------------------------------|
E|/8 8 8 8 8----33333---55555---55555---------------------------------------|


"love is in the middle"
e|--------------------------------------------------------------------------|
B|10-10-10-10-10-10-10-10\8/12-----10-10-10-10-10-10-10-10\8/14-14----------|
G|--------------------------------------------------------------------------|
D|--------------------------------------------------------------------------|
A|--------------------------------------------------------------------------|
E}--------------------------------------------------------------------------|

e|---------------------------------------------------------------------------|
B)12-12-12-12-12-12-12-12\10/15-----12-12-12-12-12-12-12-12\10/17------------|
G|---------------------------------------------------------------------------|
D|---------------------------------------------------------------------------|
A|---------------------------------------------------------------------------|
E}---------------------------------------------------------------------------|

thats pretty much it. enjoy.
Suggest correction
Give kudos to tab author, rate the tab!
1 2 3 4 5
comments
print report bad tab
3 comments total.
0 reply
search49 174 Jun 17, 2007 07:02 PM

PLEASE!! SOMEONE DO A POWERTAB!! I can't figure out the rhythm, and this song is too good not to know. Please help me out.

0 reply
theStallions 73 Jun 20, 2007 10:38 PM

There are a couple amendments I should have made long ago

first part of main riff is 15-0-15-0-15
last part is 17-0-17-0-19-0-17-0-15-15

second bar of bridge tingy goes G5-A5-D5 others are G5-A5-A5

solo uses same rhythm indicated in tab but pitches are
B---10-8-12 then 10-8-15 then 12-----15
G---------------------------------12

Sorry dude i don't have power tab. Listen very carefully and you can get it
also for last bit of main riff that ends the song Zinner adds extra notes using the same scale seen in the regular version and uses harmonics at the 19th of E

0 reply
search49 174 Feb 14, 2008 11:07 PM

I think you've got the main riff wrong. I can't quite get the rhythm, but there's a E|-15-12-15- and a E|-14-10-14- and a E|-17-15-17-. It doesn't go back to open every time.

guest
You may want to rate the tab now too:
select rating
Wanna post a correction for this tab? Suggest correction