Oops, an error
Loading. Please wait.

Sealings Tab

version 2
version 2

Whole song

Interactive

3,307 views 9 this week
1 commentread comment
1 2 3 4 5
excellent!
x 4
add to favorites
launch autoscroll
font size
0
reset
how to read this tab
guitar tuner
Tab Pro tools
  • play this tab
  • loop segment
  • change instrument
  • show fretboard
  • metronome
×
Best way to learn
"Sealings"
Autoscroll
slow
fast
+/-
esc
set tempo
stop
Contributor
Difficulty
novice
-------------------------------------------------------------------------------
                             Sealings - Yeah Yeah Yeahs
-------------------------------------------------------------------------------
Tabbed by: cyco_bob56
Email: cyco_bob56@hotmail.com

So I went through the first version of the "Sealings" tab and noticed some
different things here and there.
Quite a few actually and I'm kinda basing mine off of that person's tab.
Kudos to the guy for getting me started on an awesome song.

Tuning:Standard

Intro:
(I think this is actually a synth but I've set it up for a tremolo picking guitar. 
pick all notes.)
e|---------------------------------|
B|---------------------------------|
G|---------------------------------|
D|---------------------------------|
A|---------------------------------|
E|--12------10------5------0-------|

Main Riff:
e|---------------------------------------------------------------------------|
B|---------------------------------------------------------------------------|
G|---------------------------------------------------------------------------|
D|---------------------------------------------------------------------------|
A|---------------------------------------------------------------------------|
E|--0-0-15-12-15-12-0-0-15-12-15-12-0-0-12h15-0-0-14-10-14-10-0-0-14-10-14-10|

e|---------------------------------------------------------------------------|
B|---------------------------------------------------------------------------|
G|---------------------------------------------------------------------------|
D|---------------------------------------------------------------------------|
A|---------------------------------------------------------------------------|
E|-14-10--10h14-0-0-17-15-17-15-0-0-17-15-17-15-15-15h17-0-0-19-0-0-19-0-0-19|

e|---------------------------------------------------------------------------|
B|---------------------------------------------------------------------------|
G|---------------------------------------------------------------------------|
D|---------------------------------------------------------------------------|
A|---------------------------------------------------------------------------|
E|-0-17-0-15-0-14h15---------------------------------------------------------|

Bridge 1:
e|-x-x-x-x-x--x-x--x--x-x-x-----------17\\-------------17\\-------------19\----|
B|-x-x-x-x-x--x-x--x--x-x-x----------------------------------------------------|
G|-x-x-x-x-x--x-x--x--x-x-x-5-5/7-7----------5-5/7-7----------7-7/9-9----------|
D|-x-x-x-x-x--x-x--x--x-x-x-5-5/7-7----------5-5/7-7----------7-7/9-9----------|
A|-x-x-x-x-x--x-x--x--x-x-x-3-3/5-5----------3-3/5-5----------5-5/7-7----------|
E|-x-x-x-x-x--x-x--x--x-x-x----------------------------------------------------|

e|-------------19\\----------------------------------------------------------|
B|---------------------------------------------------------------------------|
G|---7-7/9-9-----------------------------------------------------------------|
D|---7-7/9-9-----------------------------------------------------------------|
A|---5-5/7-7-----------------------------------------------------------------|
E|---------------------------------------------------------------------------|

Chorus:
e|---------------------------------------------------------------------------|
B|---------------------------------------------------------------------------|
G|---------------------------------------------------------------------------|
D|--10-10-10-10-10---5-5-5-5-5---7-7-7-7-7---7-7-7-7-7---10-10-10-10-10------|
A|--10-10-10-10-10---5-5-5-5-5---7-7-7-7-7---7-7-7-7-7---10-10-10-10-10------|
E|---8--8--8--8--8---3-3-3-3-3---5-5-5-5-5---5-5-5-5-5----8--8--8--8--8------|

e|---------------------------------------------------------------------------|
B|---------------------------------------------------------------------------|
G|--------------------------7-7-7-7-7----------------------------------------|
D|--5-5-5-5-5---7-7-7-7-7---7-7-7-7-7----------------------------------------|
A|--5-5-5-5-5---7-7-7-7-7---5-5-5-5-5----------------------------------------|
E|--3-3-3-3-3---5-5-5-5-5----------------------------------------------------|

Bridge 2:
e|---------------------------------------------------------------------------|
B|--10-10--10-10--10-10--10-10--8//12--10-10--10-10--10-10--10-10--8//15-----|
G|---------------------------------------------------------------------------|
D|---------------------------------------------------------------------------|
A|---------------------------------------------------------------------------|
E|---------------------------------------------------------------------------|

e|---------------------------------------------------------------------------|
B|--12-12--12-12--12-12--12-12--10//15--12-12--12-12--12-12--12-12--8//12----|
G|---------------------------------------------------------------------------|
D|---------------------------------------------------------------------------|
A|---------------------------------------------------------------------------|
E|---------------------------------------------------------------------------|

Solo?: tremolo pick each note
e|-----------------------------------------------------------------------------|
B|--12//15--10//13--12\\8\\7//8/10-12//15--10//13--12\\8\\5--------------------|
G|-----------------------------------------------------------------------------|
D|-----------------------------------------------------------------------------|
A|-----------------------------------------------------------------------------|
E|-----------------------------------------------------------------------------|

Order:

Intro:     x4
Main Riff: x3
Bridge 1:  x1
Chorus:    x2
Main Riff: x3
Bridge 2:  x2
Chorus:    x2
Solo
Main Riff: x4
End on open E

| /  slide up
| \  slide down
| h  hammer-on
| p  pull-off
| ~  vibrato
| +  harmonic
| x  Mute note
===============================================================================
comments
print report bad tab
1 comment total.
0 reply
search49 wrote on May 9 2008, 07:58 pm

YES!! THANK YOU!!

I want to post or [tab]
guest
You may want to rate the tab now too:
select rating
Please do not post tabs as comments. Select "correction" instead!