Oops, an error
Loading. Please wait.

Sheena Is A Punk Rocker tab

version 2
version 2

Whole song

85 views 1 this week
no commentswrite comment
1 2 3 4 5
3 more votes to show rating
add to favorites
×
Save as Personal and add changes to this tab that will be seen only by you. Learn more ›
×
You can save this tab as Personal to edit and correct it or add notes. All changes will be seen only by you. Learn more »
launch autoscroll
font size
0
reset
how to read this tab
guitar tuner
edit
Autoscroll
slow
fast
+/-
esc
set tempo
stop
Author
Difficulty
-------------------------------------------------------------------------------
                             Sheena is a Punk Rocker - Yeah Yeah Yeahs
-------------------------------------------------------------------------------
Tabbed by: Danie
E-mail:rageeven@gmail.com

Tuning: EADGBe, or standard


[Intro]

e|---------------------------------------------------------------------------|
B|---------------------------------------------------------------------------|
G|---------------------------------------------------------------------------|
D|6/7777777-6/777777-6/777777-6/777777---------------------------------------|
A|6/7777777-6/777777-6/777777-6/777777---------------------------------------|
E|4/5555555-4/555555-4/555555-4/555555---------------------------------------|


[Verse]

"Well the kids are all . . . going to the discotheque Au Go Go. . . ." 
e|---------------------------------------------------------------------------|
B|---------------------------------------------------------------------------|
G|-------------------------------------6/777777-6/777777---------------------|
D|6/7777777-6/777777-6/777777-6/777777-6/777777-6/777777-6/777777-6/777777---|
A|6/7777777-6/777777-6/777777-6/777777-4/555555-4/555555-6/777777-6/777777---|
E|4/5555555-4/555555-4/555555-4/555555-------------------4/555555-4/555555---|

"But she just . . . break away. . . ."
e|---------------------------------------------------------------------------|
B|---------------------------------------------------------------------------|
G|---------7777777---------7777777-------------------------------------------|
D|44444444-7777777-4444444-7777777-------------------------------------------|
A|44444444-5555555-4444444-5555555-------------------------------------------|
E|22222222---------2222222---------------------------------------------------|

"Well New York City. . . ."
e|---------------------------------------------------------------------------|
B|---------------------------------------------------------------------------|
G|-------------------8/999999-8/999999-8/999999-8/999999---------------------|
D|6/7777777-6/777777-8/999999-8/999999-8/999999-8/999999---------------------|
A|6/7777777-6/777777-6/777777-6/777777-6/777777-6/777777---------------------|
E|4/5555555-4/555555---------------------------------------------------------|


[Chorus]

"Sheena is. . . ."
e|---------------------------------------------------------------------------|
B|---------------------------------------------------------------------------|
G|--------777-999----------777-999-------------------------------------------|
D|7777777-777-999-77777777-777-999-------------------------------------------|
A|7777777-555-777-77777777-555-777-------------------------------------------|
E|5555555---------55555555---------------------------------------------------| x4

"She's a punk punk. . . ."
e|---------------------------------------------------------------------------|
B|---------------------------------------------------------------------------|
G|7777777777777777-------------------9999999999999999------------------------|
D|7777777777777777-77777777777777777-9999999999999999-5555555555555555-------|
A|5555555555555555-77777777777777777-7777777777777777-5555555555555555-------|
E|-----------------55555555555555555------------------3333333333333333-------|


[Instrumental]

e|---------------------------------------------------------------------------|
B|---------------------------------------------------------------------------|
G|---------------------------------------------------------------------------|
D|6/7777777-6/777777-6/777777-6/777777---------------------------------------|
A|6/7777777-6/777777-6/777777-6/777777---------------------------------------|
E|4/5555555-4/555555-4/555555-4/555555---------------------------------------|


[Verse]

"Well the kids are all . . . going to the discotheque Au Go Go. . . ." 
e|---------------------------------------------------------------------------|
B|---------------------------------------------------------------------------|
G|-------------------------------------6/777777-6/777777---------------------|
D|6/7777777-6/777777-6/777777-6/777777-6/777777-6/777777-6/777777-6/777777---|
A|6/7777777-6/777777-6/777777-6/777777-4/555555-4/555555-6/777777-6/777777---|
E|4/5555555-4/555555-4/555555-4/555555-------------------4/555555-4/555555---|

"But she just . . . break away. . . ."
e|---------------------------------------------------------------------------|
B|---------------------------------------------------------------------------|
G|6/777777-6/777777-6/777777-6/777777----------------------------------------|
D|6/777777-6/777777-6/777777-6/777777----------------------------------------|
A|4/555555-4/555555-4/555555-4/555555----------------------------------------|
E|---------------------------------------------------------------------------|

"Well New York City. . . ."
e|---------------------------------------------------------------------------|
B|---------------------------------------------------------------------------|
G|-------------------8/999999-8/999999-8/999999-8/999999---------------------|
D|6/7777777-6/777777-8/999999-8/999999-8/999999-8/999999---------------------|
A|6/7777777-6/777777-6/777777-6/777777-6/777777-6/777777---------------------|
E|4/5555555-4/555555---------------------------------------------------------|Let the last note ring.


[Bridge]

"Sheena is. . . ."
e|---------------------------------------------------------------------------|
B|---------------------------------------------------------------------------|
G|--------12-------9------7---------------12-------9-------------------------|
D|7-------12-------9------7-------7-------12-------9-------------------------|
A|7-------10-------7------5-------7-------10-------7-------------------------|
E|5-------------------------------5------------------------------------------|Single strums, arpeggio.


[Chorus]

(second part)

"Punk punk. . . ."
e|---------------------------------------------------------------------------|
B|---------------------------------------------------------------------------|
G|7777777777777777-------------------9999999999999999------------------------|
D|7777777777777777-77777777777777777-9999999999999999-5555555555555555-------|
A|5555555555555555-77777777777777777-7777777777777777-5555555555555555-------|
E|-----------------55555555555555555------------------3333333333333333-------|


[Instrumental]

e|---------------------------------------------------------------------------|
B|---------------------------------------------------------------------------|
G|---------------------------------------------------------------------------|
D|6/777-77-6/777-77-6/777-77-6/777-77----------------------------------------|
A|6/777-77-6/777-77-6/777-77-6/777-77----------------------------------------|
E|4/555-55-4/555-55-4/555-55-4/555-55----------------------------------------|


[Chorus]

(first part)

"Sheena is. . . ."
e|---------------------------------------------------------------------------|
B|---------------------------------------------------------------------------|
G|--------555-999----------999-999-------------------------------------------|
D|7777777-555-999-77777777-999-999-------------------------------------------|
A|7777777-777-777-77777777-777-777-------------------------------------------|
E|5555555---------55555555---------------------------------------------------| x4


[Outro]

e|---------------------------------------------------------------------------|
B|---------------------------------------------------------------------------|
G|---------------------------------------------------------------------------|
D|7--------------------------------------------------------------------------|
A|7--------------------------------------------------------------------------|
E|5--------------------------------------------------------------------------|


************************************
| /   slide up
************************************

            
            
Suggest correction
Creating personal tab
Creating personal tab
You can edit any tab online and save it as your Personal.

You can edit, replace or remove any tab part or add personal notes – all changes will be seen only by you.

Personal tabs can be accessed anytime from any device, even offline.
Learn more »
Give kudos to tab author, rate the tab!
1 2 3 4 5
comments
print report bad tab
guest
You may want to rate the tab now too:
select rating
Wanna post a correction for this tab? Suggest correction