Oops, an error
Loading. Please wait.

Turn Into solo tab

10,410 views 1 this week
2 commentsread comments
1 2 3 4 5
x 4
add to favorites
×
Save as Personal and add changes to this tab that will be seen only by you. Learn more ›
×
You can save this tab as Personal to edit and correct it or add notes. All changes will be seen only by you. Learn more »
launch autoscroll
font size
0
reset
how to read this tab
guitar tuner
edit
Autoscroll
slow
fast
+/-
esc
set tempo
stop
Author
Difficulty
-----------------------------------------------------------------------------
                             TURN INTO - Yeah Yeah Yeahs
-----------------------------------------------------------------------------
Tabbed by: Chapman Li (aka SonicYouthRules)
Email: chapman_li@hotmail.com

Wow, saw these guys last night in London (Kentish Town) - one of the very
best gigs I've seen. This is one of my favourite songs off their new
record.

Great solo, I think this is pretty accurate. Plz give me a rating if you
like! Took me a little while figuring it out...



(2:14)
e|--------------------------------------------------------------------------|
B|--------------------------------------------------------------------------|
G|--/5~---5-4-5--7-2~---9-7-5-7--12~----------------------------------------|
D|--------------------------------------------------------------------------|
A|--------------------------------------------------------------------------|
E|--------------------------------------------------------------------------|

e|--------------------------------------------------------------------------|
B|--12-10-8-10--15b(17)b15--15b(17)-15--13-12-------------------------------|
G|--------------------------------------------------------------------------|
D|--------------------------------------------------------------------------|
A|--------------------------------------------------------------------------|
E|--------------------------------------------------------------------------|

e|--------------------------------------------------------------------------|
B|--13~~~~-12---13~--15--5~-------------------------------------------------|
G|--------------------------------------------------------------------------|
D|--------------------------------------------------------------------------|
A|--------------------------------------------------------------------------|
E|--------------------------------------------------------------------------|

e|--------------------------------------------------------------------------|
B|--13-12-13--13b(15)--15~--------------------------------------------------|
G|--------------------------------------------------------------------------|
D|--------------------------------------------------------------------------|
A|--------------------------------------------------------------------------|
E|--------------------------------------------------------------------------|

e|--11b(12)-10-8--8~~~------------------------------------------------------|
B|--------------------------------------------------------------------------|
G|--------------------------------------------------------------------------|
D|--------------------------------------------------------------------------|
A|--------------------------------------------------------------------------|
E|--------------------------------------------------------------------------|


| /  slide up
| \  slide down
| h  hammer-on
| p  pull-off
| ~  vibrato
| +  harmonic
| x  Mute note
=============================================================================

            
            
Suggest correction
Creating personal tab
Creating personal tab
You can edit any tab online and save it as your Personal.

You can edit, replace or remove any tab part or add personal notes – all changes will be seen only by you.

Personal tabs can be accessed anytime from any device, even offline.
Learn more »
comments
print report bad tab
2 comments total.
0 reply
gurl_w/guitar 31 Jan 19, 2009 02:24 PM

isn't there two solos in the song? maybe its the same one

0 reply
guitar learning 10 Apr 28, 2013 05:49 PM

this solo tab goes wrong after the first two parts to it. but the pattern is the same so it's easy to figure out most of it (at least not super hard)

but there is something a little tricky at the end where it's not the exact same pattern (at least it seems that way to me)

guest
You may want to rate the tab now too:
select rating
Wanna post a correction for this tab? Suggest correction