Oops, an error
Loading. Please wait.

Y Control Bass Tab

version 1
version 1

Whole song

Interactive

6,765 views 3 this week
3 commentsread comments
1 2 3 4 5
x 3
add to favorites
launch autoscroll
font size
0
reset
guitar tuner
Autoscroll
slow
fast
+/-
esc
set tempo
stop
Help us to improve Ultimate-Guitar.com Take our survey!
×
Author
Difficulty
novice
Verse
|-----------------------------------------|
|-----------------------------------------|
|-3-3-3-3-5-5-5-5-12-12-12-12-10-10-10-10-|
|-----------------------------------------|

Pre-Chorus

|-----------|
|-----------|          
|-8-8-12-12-|
|-----------|  x3


|----------|
|-12/15\12-|
|----------|
|----------| x4

Chorus repeats verse twice then:

|---------------------------------|-----------------------------------|
|---------------------------------|-----------------------------------|
|-3-3-3-3-5-5-5-5-7-7-7-7-8-8-8-8-|-3-3-3-3-5-5-5-5-7-7-7-7-8-8-15-15-|
|---------------------------------|-----------------------------------|
Suggest correction
Give kudos to tab author, rate the tab!
1 2 3 4 5
comments
print report bad tab
3 comments total.
0 reply
tescorob 31 Nov 28, 2007 04:56 PM

Notes are perfect, i find the order a bit confusing though!

-1 reply
ersatz 10 Jan 24, 2008 01:42 AM


|-----------------------------------------|
|-----------------------------------------|
|-3-3-3-3-5-5-5-5-12-12-12-12-10-10-10-10-|
|-----------------------------------------|
this could be this
|-----------------------------------------|
|------------------7-7-7-7-7-5-5-5-5-----|
|-3-3-3-3-5-5-5-5-------------------------|
|-----------------------------------------|

also
|-----------|
|-----------|
|-8-8-12-12-|
|-----------| x3
this could be this
|-----------|
|------7-7--|
|-8-8-------|
|-----------| x3

Finally,
|---------------------------------|-----------------------------------|
|---------------------------------|-----------------------------------|
|-3-3-3-3-5-5-5-5-7-7-7-7-8-8-8-8-|-3-3-3-3-5-5-5-5-7-7-7-7-8-8-15-15-|
|---------------------------------|-----------------------------------|
this could be this
|---------------------------------|-----------------------------------|
|---------------------------------|-----------------------------10-10-|
|-3-3-3-3-5-5-5-5-7-7-7-7-8-8-8-8-|-3-3-3-3-5-5-5-5-7-7-7-7-8-8-------|
|---------------------------------|-----------------------------------|
this is all done in order to remove unessecarry finger movement

0 reply
aidan.zpeel 781 Sep 03, 2014 10:19 AM

Clearly wrong.

guest
You may want to rate the tab now too:
select rating
Wanna post a correction for this tab? Suggest correction