Oops, an error
Loading. Please wait.

Y Control Tab

version 1
version 1

Whole song

Interactive

38,756 views 21 this week
2 commentsread comments
1 2 3 4 5
x 7
add to favorites
launch autoscroll
font size
0
reset
how to read this tab
guitar tuner
Autoscroll
slow
fast
+/-
esc
set tempo
stop
Help us to improve Ultimate-Guitar.com Take our survey!
×
                     YEAH YEAH YEAHS - Y CONTROL

Yeah yeah yeahs
Fever to tell
Y Control
Drop E string to C
(slipknotbos@hotmail.com)
www.yeahyeahyeahs.com 


Intro/Other parts - with echo

|-8-8-8-0-12-|  The whole song is done using tremolo picking (fast picking)
|------------|
|------------|
|------------|
|------------|
|------------|

Verse

|---------------------------------|
|---------------------------------|
|---------------------------------|
|---------------------------------|
|---------------------------------|
|-0-0-0-0-2-2-2-2-9-9-9-9-7-7-7-7-|

Chorus

|---------|
|---------|
|---------|
|---------|          
|---------|        
|-5-5-9-9-| x3 then...

|--------|
|--------|
|--------|
|-9/12\9-|
|--------|
|--------| x4

Bridge bit - "Out of control, high control"

|---------------------------------|-----------------------------------|
|---------------------------------|-----------------------------------|
|---------------------------------|-----------------------------------|
|---------------------------------|-----------------------------------|
|---------------------------------|-----------------------------------|
|-0-0-0-0-2-2-2-2-5-5-5-5-6-6-6-6-|-0-0-0-0-2-2-2-2-4-4-4-4-5-5-12-12-|
Suggest correction
comments
print report bad tab
2 comments total.
+1 reply
skviiier 10 Sep 14, 2008 06:05 AM

yeahh nice work man, i was a bit sceptical when i saw that it was in drop C, but the verse sounds spot on. Couple of changes though, I think the intro should be:

E|----------------12---|
B|--13-----------------|
G|-----------12--------|
D|---------------------|
A|---------------------|
C|---------------------|

and also the D|--9---12---9 part should be on the G string instead of the D.
Well done though, sounds great.

0 reply
Pikka Bird 40 Aug 20, 2010 08:12 AM

OR
E|-8---12----|
B|---8-------|
G|-----------|
D|-----------|
A|-----------|
C|-----------|

I like to play it like this because when you bar the 8th fret it's easier to give it that noisy feel of the original.

Also, I feel the pre-chorus thing should be

G|-9----10-11b½-10-9---|

...which is a little "untraditional" to say the least, but I think it sounds closer.

guest
You may want to rate the tab now too:
select rating
Wanna post a correction for this tab? Suggest correction