Oops, an error
Loading. Please wait.

Per Qualche Dollaro In Piu Tab

6,052 views 9 this week
2 commentsread comments
1 2 3 4 5
please rate
add to favorites
launch autoscroll
font size
0
reset
how to read this tab
guitar tuner
Tab Pro tools
  • play this tab
  • loop segment
  • change instrument
  • show fretboard
  • metronome
×
Best way to learn
"Per Qualche Dollaro In Piu"
Autoscroll
slow
fast
+/-
esc
set tempo
stop
Contributor
per qualche dollaro in piu


Year Long Disaster


TRANSCRIBED BY RUDY GUZMAN


guzman_84@hotmail.com

e:-------------------------------------|
B:-------------------------------------|
G:-------------------------------------|
D:-------------------------------------|
A:-3h5-5-----------------------3-5-6-5-|
E:-------3h5-5--5-5-5-5-5-5-5----------|

e:-------------------------------------------|
B:-------------------------------------------|
G:-------------------------------------------|
D:-------------------------------------------|
A:-3h5-5-----------------------6-5-6p5-5p3-5-|
E:-------3h5-5--5-5-5-5-5-5-5----------------|

e:-------------------------------------|
B:-------------------------------------|
G:-------------------------------------|
D:-------------------------------------|
A:-3h5-5-----------------------3-5-6-5-|
E:-------3h5-5--5-5-5-5-5-5-5----------|

e:-------------------------------------------|
B:-------------------------------------------|
G:-------------------------------------------|
D:-------------------------------------------|
A:-3h5-5-----------------------6-5-6p5-5p3-5-|
E:-------3h5-5--5-5-5-5-5-5-5----------------|

  verse
e:-------------------------------------|
B:-------------------------------------|
G:-------------------------------------|
D:-------------------------------------|
A:-3h5-5-----------------------3-5-6-5-|
E:-------3h5-5--5-5-5-5-5-5-5----------|

e:-------------------------------------------|
B:-------------------------------------------|
G:-------------------------------------------|
D:-------------------------------------------|
A:-3h5-5-----------------------6-5-6p5-5p3-5-|
E:-------3h5-5--5-5-5-5-5-5-5----------------|

                            fdbk
e:-------------------------------|
B:-------------------------------|
G:-------------------------------|
D:-7---(7)---x----7--------------|
A:-5---(5)---x----5--------------|
E:-------------------------------|


e:-------------------------------------|
B:-------------------------------------|
G:-------------------------------------|
D:-------------------------------------|
A:-3h5-5-----------------------3-5-6-5-|
E:-------3h5-5--5-5-5-5-5-5-5----------|

e:-------------------------------------------|
B:-------------------------------------------|
G:-------------------------------------------|
D:-------------------------------------------|
A:-3h5-5-----------------------6-5-6p5-5p3-5-|
E:-------3h5-5--5-5-5-5-5-5-5----------------|


e:-------------------------------------|
B:-------------------------------------|
G:-------------------------------------|
D:-2--5--2------------2--5--2--x--8--7-|
A:-0--3--0--5--7--5---0--3--0--x--6--5-|
E:----------3--5--3--------------------|


e:----------------------------|
B:----------------------------|
G:----------------------------|
D:-2--5--2------------5--7--2-|
A:-0--3--0--5--7--5---3--5--0-|
E:----------3--5--3-----------|

  verse
e:-------------------------------------|
B:-------------------------------------|
G:-------------------------------------|
D:-------------------------------------|
A:-3h5-5-----------------------3-5-6-5-|
E:-------3h5-5--5-5-5-5-5-5-5----------|

e:-------------------------------------------|
B:-------------------------------------------|
G:-------------------------------------------|
D:-------------------------------------------|
A:-3h5-5-----------------------6-5-6p5-5p3-5-|
E:-------3h5-5--5-5-5-5-5-5-5----------------|

e:-------------------------------------|
B:-------------------------------------|
G:-------------------------------------|
D:-------------------------------------|
A:-3h5-5-----------------------3-5-6-5-|
E:-------3h5-5--5-5-5-5-5-5-5----------|

e:-------------------------------------------|
B:-------------------------------------------|
G:-------------------------------------------|
D:-------------------------------------------|
A:-3h5-5-----------------------6-5-6p5-5p3-5-|
E:-------3h5-5--5-5-5-5-5-5-5----------------|


                            fdbk
e:-------------------------------|
B:-------------------------------|
G:-7---(7)---x-x-x-x---7---------|
D:-7---(7)---x-x-x-x---7---------|
A:-5---(5)---x-x-x-x---5---------|
E:-------------------------------|

  verse
e:-------------------------------------|
B:-------------------------------------|
G:-------------------------------------|
D:-------------------------------------|
A:-3h5-5-----------------------3-5-6-5-|
E:-------3h5-5--5-5-5-5-5-5-5----------|

e:-------------------------------------------|
B:-------------------------------------------|
G:-------------------------------------------|
D:-------------------------------------------|
A:-3h5-5-----------------------6-5-6p5-5p3-5-|
E:-------3h5-5--5-5-5-5-5-5-5----------------|

e:-------------------------------------|
B:-------------------------------------|
G:-------------------------------------|
D:-2--5--2------------2--5--2--x--8--7-|
A:-0--3--0--5--7--5---0--3--0--x--6--5-|
E:----------3--5--3--------------------|


e:----------------------------|
B:----------------------------|
G:----------------------------|
D:-2--5--2------------5--7--2-|
A:-0--3--0--5--7--5---3--5--0-|
E:----------3--5--3-----------|

e:-------------------------------------|
B:-------------------------------------|
G:-------------------------------------|
D:-2--5--2------------2--5--2--x--8--7-|
A:-0--3--0--5--7--5---0--3--0--x--6--5-|
E:----------3--5--3--------------------|


e:----------------------------|
B:----------------------------|
G:----------------------------|
D:-2--5--2------------------7-|
A:-0--3--0--5--7--5---3--2--5-|
E:----------3--5--3---1--0----|


                fdbk       pick slide     flanger
e:----------------------------------------------------|
B:----------------------------------------------------|
G:-2----(2)------/------------------------(2)---------|
D:-2----(2)------/------------------------(2)---------|
A:-0----(0)------/--------x/--------------(0)---------|
E:------------------------x/--------------------------|

   bass line distorted
e:--------------------------------------------------------------------|
B:--------------------------------------------------------------------|
G:--------------------------------------------------------------------|
D:---------------------------------------------------------7----------|
A:-7--8-8--5--3----7--8-8--5---7--8-8--3--2--5--3--2--2-2--5----------|
E:-5--6-6--3--1----5--6-6--3---5--6-6--1--0--3--1--0--0-0-------14/---|

e:-------------------------------------------------------------------------|
B:-------------------------------------------------------------------------|
G:-------------------------------------------------------------------------|
D:--------------------------------------------------------------7----------|
A:-7--8-8--5--3--5--3---7--8-8--5---7--8-8--3--2--5--3--2--2-2--5----------|
E:-5--6-6--3--1--3--1---5--6-6--3---5--6-6--1--0--3--1--0--0-0-------14/---|


e:-------------------------------------|
B:-------------------------------------|
G:-------------------------------------|
D:-------------------------------------|
A:-3h5-5-----------------------3-5-6-5-|
E:-------3h5-5--5-5-5-5-5-5-5----------|

e:-------------------------------------------|
B:-------------------------------------------|
G:-------------------------------------------|
D:-------------------------------------------|
A:-3h5-5-----------------------6-5-6p5-5p3-5-|
E:-------3h5-5--5-5-5-5-5-5-5----------------|


e:----------------------------------------------11-9-----------------|
B:-------------------------9--9h11--11~~~-9h11--------11p9-11--9-----|
G:-6-6-6-6-6-6-6-6-6--8bf--------------------------------------------|
D:-7-7-7-7-7-7-7-7-7----------------------------------------------11-|
A:-------------------------------------------------------------------|
E:-------------------------------------------------------------------|


e:-------------------------------------|
B:-------------------------------------|
G:-------------------------------------|
D:-2--5--2------------2--5--2--x--8--7-|
A:-0--3--0--5--7--5---0--3--0--x--6--5-|
E:----------3--5--3--------------------|


e:----------------------------|
B:----------------------------|
G:----------------------------|
D:-2--5--2------------5--7--2-|
A:-0--3--0--5--7--5---3--5--0-|
E:----------3--5--3-----------|

e:----------------------|
B:----------------------|
G:-9--9--9--9--9--9--9--|
D:-10-10-10-10-10-10-10-|
A:----------------------|
E:----------------------|

e:-------------------------------------|
B:-------------------------------------|
G:-------------------------------------|
D:-2--5--2------------2--5--2--x--8--7-|
A:-0--3--0--5--7--5---0--3--0--x--6--5-|
E:----------3--5--3--------------------|


e:----------------------------|
B:----------------------------|
G:----------------------------|
D:-2--5--2------------------7-|
A:-0--3--0--5--7--5---3--2--5-|
E:----------3--5--3---1--0----|


e:-----------|
B:-----------|
G:-----------|
D:-2--5--2---|
A:-0--3--0---|
E:-----------|

http://www.myspace.com/yearlongdisaster
http://www.yearlongdisaster.com/

hillo son mex

18/02/10
comments
We did not receive enough feedback on this tab! Please rate:
print report bad tab
1 2 3 4 5
2 comments total.
0 reply
red_explor wrote on February 26 2016, 02:57 pm

thank you love the band

0 reply
nalga_leprosa wrote on February 27 2016, 07:49 pm

no problem,
its a great band

I want to post or [tab]
guest
You may want to rate the tab now too:
select rating
Please do not post tabs as comments. Select "correction" instead!