Oops, an error
Loading. Please wait.

Miles Away Acoustic Tab

62,100 views 273 this week
6 commentsread comments
1 2 3 4 5
excellent!
x 8
add to favorites
launch autoscroll
font size
0
reset
how to read this tab
guitar tuner
Tab Pro tools
  • play this tab
  • loop segment
  • change instrument
  • show fretboard
  • metronome
×
Best way to learn
"Miles Away Acoustic"
Autoscroll
slow
fast
+/-
esc
set tempo
stop
Difficulty
intermediate
-----------------------------------------------------------------
Miles Away (Acoustic Version)
- Years Around the Sun
-----------------------------------------------------------------
Tabbed by: staydr
Tuning: standard

Verse: We watched the light...

e|---------------------------------------------------------------|
B|---------------------------------------------------------------|
G|------------7-----------5--------------------------------------|
D|-----0----------0----------0------8--8-------8-----------------|
A|---------------------------------------------------------------|
E|--6-----6-----------6---------6---------6----------------------|

e|---------------------------------------------------------------|
B|---------------------------------------------------------------|
G|------------7-----------5--------------------------------------|
D|-----0----------0----------0------8--8-------8-----------------|
A|---------------------------------------------------------------|
E|--6-----6-----------6---------6---------6----------------------|

e|---------------------------------------------------------------|
B|---------------------------------------------------------------|
G|---------------------------------------------------------------|
D|------10------10--10---------8-------8--8------8--8------------|
A|--8-------8-----------8--10-----10---------10--------10--------|
E|---------------------------------------------------------------|

Bridge: and all the lights are shining...
e|---------------------------------------------------------------|
B|---------------------------------------------------------------|
G|---------------------------------------------------------------|
D|------8-----8--8---------10-----10--10----------8-----10--10---|
A|--6------6--------6---8------8----------8---10-----8---------8-|
E|---------------------------------------------------------------|

e|---------------------------------------------------------------|
B|---------------------------------------------------------------|
G|---------------------------------------------------------------|
D|--10--10-----10------------------------------------------------|
A|----------8----------------------------------------------------|
E|---------------------------------------------------------------|

Chorus: And our minds were meant to sail...
e|---------------------------------------------------------------|
B|---------------------------------------------------------------|
G|---------------------------------------------------------------|
D|------8-----8--8---------10-----10--10----------8-----10--10---|
A|--6------6--------6---8------8----------8---10-----8---------8-|
E|---------------------------------------------------------------|

e|---------------------------------------------------------------|
B|---------------------------------------------------------------|
G|---------------------------------------------------------------|
D|--10--10-----10------------------------------------------------|
A|----------8----------------------------------------------------|
E|---------------------------------------------------------------|

Second Guitar in Chorus

e|---------------------------------------------------------------|
B|---------------------------------------------------------------|
G|-----3----3-3-------5---5-5-------7----7-7----7-7----7---------|
D|--5----5-------5--5---5-----5--5----5------5------5------------|
A|---------------------------------------------------------------|
E|---------------------------------------------------------------|

e|---------------------------------------------------------------|
B|---------------------------------------------------------------|
G|-----3-----5-3------3----5--3-------3---3---3---3---3---3---3--|
D|--5-----5------5--3---3--------3--3---3---3---3---3---3---3----|
A|---------------------------------------------------------------|
E|---------------------------------------------------------------|

There are two other solos in the song but those will have to wait...
comments
print report bad tab
6 comments total. Showing first comments.
0 reply
Makka1993 wrote on January 31 2011, 11:31 am

How are those solos coming along?? :)
Please upload asap!!!

0 reply
kackle wrote on February 22 2013, 11:49 am

Yea man, i learned this song ages ago, came back hoping for a solo but it is not there?!?! we need your help good sir, please do not desert us!!!!

0 reply
kackle wrote on February 22 2013, 11:53 am

Yea man, i learned this song ages ago, came back hoping for a solo but it is not there?!?! we need your help good sir, please do not desert us!!!!

I want to post or [tab]
guest
You may want to rate the tab now too:
select rating
Please do not post tabs as comments. Select "correction" instead!