Oops, an error
Loading. Please wait.

Miles Away Tab

version 1
version 1

Whole song

Interactive

49,043 views 99 this week
4 commentsread comments
1 2 3 4 5
x 22
add to favorites
launch autoscroll
font size
0
reset
how to read this tab
guitar tuner
Autoscroll
slow
fast
+/-
esc
set tempo
stop
Help us to improve Ultimate-Guitar.com Take our survey!
×
Difficulty
novice
-------------------------------------------------------------
                             Miles Away - Years Around the Sun 
-------------------------------------------------------------
Tabbed by: James Madden
Email: madzda_7@hotmail.com

Tuning:Standard EADGBe


[Verse 1]
e|-------------------------------------------------------------|
B|-------------------------------------------------------------|
G|-------7-----5------------------7-----5----------------------|
D|---0-----0-----0---8-8---0---0----0-----0---8-8---0----------|
A|-------------------------------------------------------------|
E|--6--6-----6-----6-----6---6--6-----6-----6---6--------------|

[Bridge]
e|-------------------------------------------------------------|
B|-------------------------------------------------------------|
G|-------------------------------------------------------------|
D|----10---10-10---10-10---10-10---10----8-------8-------8-----|
A|--8----8-------8-------8-------8----10---10-10---10-10---10--|
E|-------------------------------------------------------------|

e|-------------------------------------------------------------|
B|-------------------------------------------------------------|
G|-------------------------------------------------------------|
D|-----8-------------------------------------------------------|
A|--10---------------------------------------------------------|
E|-------------------------------------------------------------|

[Verse 2]
e|------------------------------------------------------------|
B|------------------------------------------------------------|
G|------------------------------------------------------------|
D|----8---8-8---8----10---10-10---10----8----8-8----8-8----8--|
A|--6---6-----6--6/8----8-------8----10---10-----10-----10----|
E|------------------------------------------------------------|
 
[Verse 3]
e|------------------------------------------------------------|
B|------------------------------------------------------------|
G|------------------------------------------------------------|
D|----3---3-3---3----5---5-5---5---3-----3---3----3---3---3---|
A|--1---1-----1--1/3----3----3---5----5----5--------5---5-----|
E|------------------------------------------------------------|

[Verse 4]
e|------------------------------------------------------------|
B|------------------------------------------------------------|
G|------------------------------------------------------------|
D|----3---3-3---3----5---5-5---5---3---3---3---3---3---3---3--|
A|--1---1-----1--1/3----3----3---5---5---5---5---5----5---5---|
E|------------------------------------------------------------|

[Solo]
e|------1-----3-----1-----------------------3-----6------------|
B|----3---3-----3-----3-----------3---6-3-----3-----3----------|
G|--3-------3-----3-----3-------3---3-----3-----3-----3--------|
D|-------------------------------------------------------------|
A|-------------------------------------------------------------|
E|-------------------------------------------------------------|

e|--8-------8-------8-------8-----6-------6-------6-------6----|
B|----6---6---6---6---6---6---6-----8---8---8---8---8---8---8--|
G|------7-------7-------7-------7-----7-------7-------7-------7|
D|-------------------------------------------------------------|
A|-------------------------------------------------------------|
E|-------------------------------------------------------------|

e|------1-----3-----1-----------------------3------5-6---------|
B|----3---3-----3-----3-----------3---6-3-----3----------------|
G|--3-------3-----3-----3-------3---3-----3-----3--------------|
D|-------------------------------------------------------------|
A|-------------------------------------------------------------|
E|-------------------------------------------------------------|

e|--6-5-3-----------6-------6-----6----------------------------|
B|--------6-6/8-6-----8---8---8--------------------------------|
G|----------------7-----7-------7------------------------------|
D|-------------------------------------------------------------|
A|-------------------------------------------------------------|
E|-------------------------------------------------------------| 

[Verse 1] > Bridge x3
[Verse 2] x2
[Verse 3]
[Verse 4]
[Verse 1]
[Bridge]
[Verse 2] x2
[Verse 3] > Verse 4 x2
[Solo]
[Verse 3] > Verse 4 x2
 
************************************

| /  Slide up

************************************
Suggest correction
comments
print report bad tab
4 comments total. Showing first comments. show 1 bad comment
0 reply
willg715 73 Jun 06, 2012 02:49 PM

the first solo is


e|------1-----3-----1-----------
B|----3---3-----3-----3---------
G|--3-------3-----3-----3------- twice
D|------------------------------
A|------------------------------
E|------------------------------
then
e|--------3-----5-----3---------------------------------
B|------3---3-----3-----3----------3------4------3------
G|--3/5-------5-----5-----5-----3----3------3------3----
D|----------------------------5---------5------5------5-
A|-------------------------------------------------------
E|-------------------------------------------------------

0 reply
lauriedan13 10 Sep 21, 2012 02:06 AM

i think the bridge would be


e|-------------------------------------------------------------|
B|-------------------------------------------------------------|
G|-------------------------------------------------------------|
D|----10---10-10---10-10---10-10----0----8----8--8----8--8-----|
A|--8----8-------8-------8-------8----10---10------10------10--|
E|-------------------------------------------------------------|

e|-------------------------------------------------------------|
B|-------------------------------------------------------------|
G|-------------------------------------------------------------|
D|-8---8------0------------------------------------------------|
A|-------10----------------------------------------------------|
E|-------------------------------------------------------------|

guest
You may want to rate the tab now too:
select rating
Wanna post a correction for this tab? Suggest correction