Oops, an error
Loading. Please wait.

Warm Jets Tab

111 views 1 this week
no commentswrite comment
1 2 3 4 5
please rate
add to favorites
launch autoscroll
font size
0
reset
how to read this tab
guitar tuner
Autoscroll
slow
fast
+/-
esc
set tempo
stop
Help us to improve Ultimate-Guitar.com Take our survey!
×
Difficulty
novice
Hi, hope you enjoy this tab all you Years Around The Sun Fans!
Any problems contact me: Sandysaintsred22@hotmail.com
can you please rate this too!

/ : Slide

E |------------------------------------------------------------------------|
B |------------------------------------------------------------------------|
G |--------------------------------4/6-2-4-6-2—6-4-6-4-2—2-4-2-------------|
D |--------------------------------------------------------------4---------|
A |-4-4-2-2-4-0---0--------------------------------------------------------|
E |----------------------4-2-2---------------------------------------------|

E|---------------------------------------------2-0-|
B|-------------------------------------------2----2|
G|-4/6-2-4-6-2—6-4-6-4-2—2-4-2---------------------|
D|--------------------------------4----------------|
A|-------------------------------------------------|
E|-------------------------------------------------|

Suggest correction
Give kudos to tab author, rate the tab!
1 2 3 4 5
comments
print report bad tab
guest
You may want to rate the tab now too:
select rating
Wanna post a correction for this tab? Suggest correction