Oops, an error
Loading. Please wait.

Eyes Shut tab

version 1
version 1

Whole song

Interactive

817 views 1 this week
no commentswrite comment
1 2 3 4 5
1 last vote to show rating
add to favorites
×
Save as Personal and add changes to this tab that will be seen only by you. Learn more ›
×
You can save this tab as Personal to edit and correct it or add notes. All changes will be seen only by you. Learn more »
launch autoscroll
font size
0
reset
how to read this tab
guitar tuner
edit
Autoscroll
slow
fast
+/-
esc
set tempo
stop
Author
Difficulty
YEARS & YEARS - EYES SHUT (MELODY)

This is the melody for Eyes Shut by Years & Years.

Standard Tuning
No Capo

[Intro/Fill]

e|--------------------|------(0)-(0)----------|-------------------|
B|-0-1-3-5--8-5-3-1-1-|-------5---5-5-3-1-3-1-|-1-5-5-3-1-3-1-1---|
G|--------------------|-2-0-0-----------------|-------------------|
D|--------------------|---------2-------------|-------------------|
A|--------------------|-----------------------|-------------------|
E|--------------------|-----------------------|-------------------|


[Verse 1]

e|-------------|-----------------|-------------|--(3)--------------|---------------|
B|-1-3-5-3-5-3-|-1-3-5-1-5-3-----|-------------|-1-8-3-5-8-5-3-1---|-1-3-3-3-11-1--|
G|-------------|-------------2---|-0-22*-22*-0-|-------------------|---------------|
D|-------------|-----------------|-------------|-------------------|---------------|
A|-------------|-----------------|-------------|-------------------|---------------|
E|-------------|-----------------|-------------|-------------------|---------------|
Throw your heart to me
Let it fall and hit the ground
Let it go
Your timing was so wrong
I just want to be found

[Pre-Chorus]

e|----------------------|(3)--------|-----------|
B|--1--5-1-1----1-3--1--|-8-5-5-5-5-|-5-5-5-5-1-|
G|------------2---------|-----------|-----------|
D|----------------------|-----------|-----------|
A|----------------------|-----------|-----------|
E|----------------------|-----------|-----------|
And oh.. And I..
Yeah, I've got the lines
I've got the lines

e|------------|-----------|-------|-----------------------|
B|-3-5-8-3-3-1|-3-3-1-1---|-3-3---|---3-3-----5-3-1-3-1---|
G|------------|---------2-|(7)--2-|-2-----2-0-------------|
D|------------|-----------|-------|-----------------------|
A|------------|-----------|-------|-----------------------|
E|------------|-----------|-------|-----------------------|
Oh, it's brighter this time
This type of mine
This disguise
Oh, you talk, ooh, too me

[Chorus]

e|--------------------------|-------------|-------------|
B|-1-5-5-5-5-5-3-1-1-6-5-5--|-5-3-1-3--1--|-5-3-1-------|
G|--------------------------|-------------|-------2--0--|
D|--------------------------|-------------|-------------|
A|--------------------------|-------------|-------------|
E|--------------------------|-------------|-------------|
Well, nothing's gonna hurt me with my eyes shut
I can see through them
I can see through them

e|--------------------------|-------------|(3)-----------|
B|-1-5-5-5-5-5-3-1-1-6-5-5--|-5-3-1-3--1--|-8-5-1--------|
G|--------------------------|-------------|-------2--0---|
D|--------------------------|-------------|--------------|
A|--------------------------|-------------|--------------|
E|--------------------------|-------------|--------------|
I am drawing pictures I'm evading
I will not use them
I will not use them
Again

[Intro/Fill]

e|--------------------|------(0)-(0)----------|-------------------|
B|-0-1-3-5--8-5-3-1-1-|-------5---5-5-3-1-3-1-|-1-5-5-3-1-3-1-1---|
G|--------------------|-2-0-0-----------------|-------------------|
D|--------------------|---------2-------------|-------------------|
A|--------------------|-----------------------|-------------------|
E|--------------------|-----------------------|-------------------|


[Verse 2]
(same as verse 1)

e|-------------|-----------------|-------------|--(3)--------------|---------------|
B|-1-3-5-3-5-3-|-1-3-5-1-5-3-----|-------------|-1-8-3-5-8-5-3-1---|-1-3-3-3-1-1-1-|
G|-------------|-------------2---|-0-2-2-2-2-0-|-------------------|---------------|
D|-------------|-----------------|-------------|-------------------|---------------|
A|-------------|-----------------|-------------|-------------------|---------------|
E|-------------|-----------------|-------------|-------------------|---------------|
And it starts again
You come over with your friends
I don't wanna talk to them
And all I really want
Is to start again


[Pre-Chorus]

e|----------------------|(3)-------|-----------|
B|--1--5-1-1----1-3--1--|-8-5-5-5-5|5-5-5-5-1--|
G|------------2---------|----------|-----------|
D|----------------------|----------|-----------|
A|----------------------|----------|-----------|
E|----------------------|----------|-----------|
And oh.. And I..
Yeah, I've got the lines
I've got the lines

e|------------|-----------|-------|-----------------------|
B|-3-5-8-3-3-1|-3-3-1-1---|-3-3---|---3-3-----5-3-1-3-1---|
G|------------|---------2-|(7)--2-|-2-----2-0-------------|
D|------------|-----------|-------|-----------------------|
A|------------|-----------|-------|-----------------------|
E|------------|-----------|-------|-----------------------|
Oh, it's brighter this time
This type of mine
This disguise
Oh, you talk, ooh, too me


[Chorus]

e|--------------------------|-------------|-------------|
B|-1-5-5-5-5-5-3-1-1-6-5-5--|-5-3-1-3--1--|-5-3-1-------|
G|--------------------------|-------------|-------2--0--|
D|--------------------------|-------------|-------------|
A|--------------------------|-------------|-------------|
E|--------------------------|-------------|-------------|
Well, nothing's gonna hurt me with my eyes shut
I can see through them
I can see through them

e|--------------------------|-------------|(3)-----------|
B|-1-5-5-5-5-5-3-1-1-6-5-5--|-5-3-1-3--1--|-8-5-1--------|
G|--------------------------|-------------|-------2--0---|
D|--------------------------|-------------|--------------|
A|--------------------------|-------------|--------------|
E|--------------------------|-------------|--------------|
I am drawing pictures I'm evading
I will not use them
I will not use them
Again


[Bridge]

e|----------------------|---------|---------|
B|----------------------|-1-3h5-3-|---------|
G|-0-0-0-0h2---4-4-2-0--|---------|-4-5h7-5-|
D|----------------------|---------|---------|
A|----------------------|---------|---------|
E|----------------------|---------|---------|


[Chorus]

e|--------------------------|-------------|-------------|
B|-1-5-5-5-5-5-3-1-1-6-5-5--|-5-3-1-3--1--|-5-3-1-------|
G|--------------------------|-------------|-------2--0--|
D|--------------------------|-------------|-------------|
A|--------------------------|-------------|-------------|
E|--------------------------|-------------|-------------|
Well, nothing's gonna hurt me with my eyes shut
I can see through them
I can see through them

e|--------------------------|-------------|(3)-----------|
B|-1-5-5-5-5-5-3-1-1-6-5-5--|-5-3-1-3--1--|-8-5-1--------|
G|--------------------------|-------------|-------2--0---|
D|--------------------------|-------------|--------------|
A|--------------------------|-------------|--------------|
E|--------------------------|-------------|--------------|
I am drawing pictures I'm evading
I will not use them
I will not use them
Again

[Outro]

e|--------------------------|-------------|-------------|
B|-1-5-5-5-5-5-3-1-1-6-5-5--|-5-3-1-3--1--|-5-3-1-------|
G|--------------------------|-------------|-------2--0--|
D|--------------------------|-------------|-------------|
A|--------------------------|-------------|-------------|
E|--------------------------|-------------|-------------|
Well, nothing's gonna hurt me with my eyes shut
I can see through them
I can see through them

*************************************************************

() alternative notes - do not need to be played
h   Hammer-on

*************************************************************

            
            
Suggest correction
Creating personal tab
Creating personal tab
You can edit any tab online and save it as your Personal.

You can edit, replace or remove any tab part or add personal notes – all changes will be seen only by you.

Personal tabs can be accessed anytime from any device, even offline.
Learn more »
Give kudos to tab author, rate the tab!
1 2 3 4 5
comments
print report bad tab
guest
You may want to rate the tab now too:
select rating
Wanna post a correction for this tab? Suggest correction