Oops, an error
Loading. Please wait.

King tab

version 1
version 1

Whole song

Interactive

2,702 views 9 this week
no commentswrite comment
1 2 3 4 5
x 6
add to favorites
×
Save as Personal and add changes to this tab that will be seen only by you. Learn more ›
×
You can save this tab as Personal to edit and correct it or add notes. All changes will be seen only by you. Learn more »
launch autoscroll
font size
0
reset
how to read this tab
guitar tuner
edit
Autoscroll
slow
fast
+/-
esc
set tempo
stop
-----------------------------------------------------------------------------------------
                          King - Years and Years (Playable Vocals)
-----------------------------------------------------------------------------------------

Tabbed by:Mark Donohue 
E-mail:mwdonohue97@gmail.com

Tuning:Standard 

_________________________________________________________________________________________



e|---------------------------------------------------------------------------| Intro x2 
B|-------------5h7p5h7p5-------------5h7p5h7p5-------------------------------|
G|---4h6/7/9---------------4h6/7/9-------------------------------------------|
D|---------------------------------------------------------------------------|
A|---------------------------------------------------------------------------|
E|---------------------------------------------------------------------------|

e|---------------------------------------------5-5-7-------------------------| Verse 1 
B|---------------8-8-8-7-----------7-5-3-0-5---------7-----------------------|
G|---4-4-4-6-6-6-----------7h9p7h9-------------------------------------------| I caught you watching me 
D|---------------------------------------------------------------------------| under the light,can I realign? 
A|---------------------------------------------------------------------------| 
E|---------------------------------------------------------------------------|

e|---------------------------------------------5-5-7-------------------------| 
B|---------------8-8-8-7-----------7-5-3-0-5---------7-----------------------|
G|---4-4-4-6-6-6-----------7h9p7h9-------------------------------------------| They say its easy to leave 
D|---------------------------------------------------------------------------| you behind,I don't wanna try
A|---------------------------------------------------------------------------|
E|---------------------------------------------------------------------------|

e|---------------------------------------------------------------------------| Pre-Chorus 
B|---3-3-3-3-5-5---5-5-5-5-3-3---3-3-3-3-5-5---5-5-5-5-3-3-------------------|
G|---------------------------------------------------------------------------| Cut cover,take that test/
D|---------------------------------------------------------------------------| Hold courage to your chest/
A|---------------------------------------------------------------------------| Don't wanna wait for you/
E|---------------------------------------------------------------------------| Don't wanna have to lose 

e|-----------------------------------------5-2-2p0---------------------------|  
B|---7-7-7-7-5-5---8-8-8-8-7-7---3-3-2-2-2---------3-------------------------|
G|---------------------------------------------------------------------------| All that I've compromised/
D|---------------------------------------------------------------------------| To feel another high/
A|---------------------------------------------------------------------------| I've got to keep it down 
E|---------------------------------------------------------------------------| tonight 

e|-----5-3-2p0---------------------------------------------------------------| Chorus 
B|---3---------3---3-5-7-8\7-5-3-5-7-5-3-0-----------------------------------|
G|---------------------------------------------------------------------------| And ooh ooh ooh,I was the 
D|---------------------------------------------------------------------------| king under your control 
A|---------------------------------------------------------------------------|
E|---------------------------------------------------------------------------|

e|-----5-3-2p0---------------------------------------------------------------| 
B|---3---------3---3-5-7-8\7-5-3-5-7-5\3---------5-3-------------------------|
G|---------------------------------------4---2-2-----------------------------| And ooh ooh ooh,I wanna feel 
D|---------------------------------------------------------------------------| like you've let me go/So let 
A|---------------------------------------------------------------------------| me go 
E|---------------------------------------------------------------------------|

e|---------------------------------------------------------------------------| Bridge x2  
B|-------------5h7p5h7p5-------------5h7p5h7p5-------------------------------|
G|---4h6/7/9---------------4h6/7/9-------------------------------------------|
D|---------------------------------------------------------------------------|
A|---------------------------------------------------------------------------|
E|---------------------------------------------------------------------------|

e|---------------------------------------------5-5-7-------------------------| Verse 2 
B|---------------8-8-8-7-----------7-5-3-0-5---------7-----------------------|
G|---4-4-4-6-6-6-----------7h9p7h9-------------------------------------------| Don't you remember how I used
D|---------------------------------------------------------------------------| to like,being on the line?
A|---------------------------------------------------------------------------| 
E|---------------------------------------------------------------------------|

e|---------------------------------------------5-5-7-------------------------| 
B|---------------8-8-8-7-----------7-5-3-0-5---------7-----------------------|
G|---4-4-4-6-6-6-----------7h9p7h9-------------------------------------------| I dreamed you dreamed of me
D|---------------------------------------------------------------------------| calling out my name,is it 
A|---------------------------------------------------------------------------| worth the price?
E|---------------------------------------------------------------------------|

e|---------------------------------------------------------------------------| Pre-Chorus 
B|---3-3-3-3-5-5---5-5-5-5-3-3---3-3-3-3-5-5---5-5-5-5-3-3-------------------|
G|---------------------------------------------------------------------------| Cut cover,take that test/
D|---------------------------------------------------------------------------| Hold courage to your chest/
A|---------------------------------------------------------------------------| Don't wanna wait for you/
E|---------------------------------------------------------------------------| Don't wanna have to lose 

e|-----------------------------------------5-2-2p0---------------------------|  
B|---7-7-7-7-5-5---8-8-8-8-7-7---3-3-2-2-2---------3/5\3---------------------|
G|---------------------------------------------------------------------------| All that I've compromised/
D|---------------------------------------------------------------------------| To feel another high/
A|---------------------------------------------------------------------------| I've got to keep it down 
E|---------------------------------------------------------------------------| tonight 

e|-----5-3-2p0---------------------------------------------------------------| Chorus 
B|---3---------3---3-5-7-8\7-5-3-5-7-5-3-0-----------------------------------|
G|---------------------------------------------------------------------------| And ooh ooh ooh,I was the 
D|---------------------------------------------------------------------------| king under your control 
A|---------------------------------------------------------------------------|
E|---------------------------------------------------------------------------|

e|-----5-3-2p0---------------------------------------------------------------| 
B|---3---------3---3-5-7-8\7-5-3-5-7-5\3-------------------------------------|
G|---------------------------------------------------------------------------| And ooh ooh ooh,I wanna feel 
D|---------------------------------------------------------------------------| like you've let me go 
A|---------------------------------------------------------------------------|  
E|---------------------------------------------------------------------------|

e|---5-5-5-5-2-0-----2-0---5-5-5-5-2-0-----2-0-------------------------------| Verse 3 
B|---------------3-3-------------------3-3-----3-2-0-------------------------|
G|---------------------------------------------------------------------------| I had to break myself to 
D|---------------------------------------------------------------------------| carry on/No love,no admission,
A|---------------------------------------------------------------------------| take this from me tonight 
E|---------------------------------------------------------------------------|

e|---------------------------------------------------------------------------|  
B|---------------------3-5-7-5---------------------3-5-----------------------|
G|---4-6-7-7\4/7/9---4-----------4-6-7-7\4/7/9---4---------------------------| Oh,let's fight/Oh,let's fight/
D|---------------------------------------------------------------------------| Oh,let's fight/Oh
A|---------------------------------------------------------------------------|
E|---------------------------------------------------------------------------|

e|---------------------------------------------------------------------------| Bridge x2  
B|-------------5h7p5h7p5-------------5h7p5h7p5-------------------------------|
G|---4h6/7/9---------------4h6/7/9-------------------------------------------|
D|---------------------------------------------------------------------------|
A|---------------------------------------------------------------------------|
E|---------------------------------------------------------------------------|

e|-----5-3-2p0---------------------------------------------------------------| Chorus 
B|---3---------3---3-5-7-8\7-5-3-5-7-5-3-0-----------------------------------|
G|---------------------------------------------------------------------------| And ooh ooh ooh,I was the 
D|---------------------------------------------------------------------------| king under your control 
A|---------------------------------------------------------------------------|
E|---------------------------------------------------------------------------|

e|-----5-3-2p0---------------------------------------------------------------|  
B|---3---------3---3-5-7-8\7-5-3-5-7-5\3---------5-3-------------------------|
G|---------------------------------------4---2-2-----------------------------| And ooh ooh ooh,I wanna feel 
D|---------------------------------------------------------------------------| like you've let me go/So let 
A|---------------------------------------------------------------------------| me go 
E|---------------------------------------------------------------------------|

e|---------------------------------------------------------------------------| Bridge  
B|-------------5h7p5h7p5-------------5h7p5h7p5-------------------------------|
G|---4h6/7/9---------------4h6/7/9-------------------------------------------|
D|---------------------------------------------------------------------------|
A|---------------------------------------------------------------------------|
E|---------------------------------------------------------------------------|

e|---------------------------------------------------------------------------| Outro x2 
B|---7-5-7-5-7-5-3-3-5-5---7-5-7-5-7-5-3-3-5---------------------------------|
G|-------------------------------------------4-------------------------------| Let go,let go,let go of 
D|---------------------------------------------------------------------------| everything/Let go,let go,let
A|---------------------------------------------------------------------------| go of everything (x2) 
E|---------------------------------------------------------------------------|

************************************

| /   Slide up
| \   Slide down
| h   Hammer-on
| p   Pull-off
| -   No pause 
| --- Pause 

************************************


            
            
Suggest correction
Creating personal tab
Creating personal tab
You can edit any tab online and save it as your Personal.

You can edit, replace or remove any tab part or add personal notes – all changes will be seen only by you.

Personal tabs can be accessed anytime from any device, even offline.
Learn more »
comments
print report bad tab
guest
You may want to rate the tab now too:
select rating
Wanna post a correction for this tab? Suggest correction